PrimaNota.ru - самый крупный в мире бесплатный архив песенных текстов, аккордов, табулатур и нот


Misc Unsigned Bands - Troyjcrossley - Terror - таба

Регистрация Запомнить меня
Войти через:  Facebook Google Twitter Vk Yandex Mail.ru

Misc Unsigned Bands - Troyjcrossley - Terror - таба

Печатать
Просмотров: 51
Song - Terror
Artist - Troy.J.Crossley
Album - THE GIGANTIC HEAD PRESENTS
You can download my albums at your own price/for free at troyjcrossley.bandcamp.com

Standard tuning


Intro
(Lightly palm muted)

E:------------------------------------------------|
B:------------------------------------------------|
G:------------------------------------------------|
D:-2/7-7-X-5-5-X-4-4-X-2-2-X-7-7-X-5555-X-4-4-X-2-|
A:-0-0-0-X-0-0-X-0-0-X-0-0-X-0-0-X-0000-X-0-0-X-0-|
E:------------------------------------------------|

Verse Riff 1
(From this point on let chords ring until the X's)

E:----------------------------------------------------|
B:-------X---5-X---5-X---5-X-----X-5555-X---5-X---5-X-|
G:-----5-X-----X-----X-----X---5-X------X-----X-----X-|
D:-2/7-7-X-5-5-X-4-4-X-2-2-X-7-7-X-5555-X-4-4-X-2-2-X-|
A:-0-0-0-X-0-0-X-0-0-X-0-0-X-0-0-X-0000-X-0-0-X-0-0-X-|
E:----------------------------------------------------|

E:--------------------------------------------------|
B:-----X---5-X---5-X---5-X------X---5-X---5-X---5-X-|
G:---5-X-----X-----X-----X-5555-X-----X-----X-----X-|
D:-7-7-X-5-5-X-4-4-X-2-2-X-7777-X-5-5-X-4-4-X-2-2-X-|
A:-0-0-X-0-0-X-0-0-X-0-0-X-0000-X-0-0-X-0-0-X-0-0-X-|
E:--------------------------------------------------|

Verse Riff 2

E:--------------------------|
B:--------------------------|
G:-5-5-X-12---X-9---X-7---X-|
D:-7-7-X-9----X-7---X-5---X-|    X 4
A:-0-0-X-0-10-X-----X-----X-|
E:-----X------X---8-X---7-X-|

Chorus

E:---------------------------------------------------|
B:---------------------------------------------------|
G:-7-7-X-5-5-X-7-7-X-5-5-X---------------------------|
D:-7-7-X-7-7-X-7-7-X-7-7-X-7-7-X-5557-X-7-7-X-5557-X-|
A:-5-5-X-5-5-X-5-5-X-5-5-X-7-7-X-7777-X-7-7-X-7777-X-|
E:-------------------------5-5-X-5555-X-5-5-X-5555-X-|

E:--------------------------------------------------|
B:--------------------------------------------------|
G:-7-7-X-5-5-X-7-7-X-5-5-X--------------9---X-7---X-|
D:-7-7-X-7-7-X-7-7-X-7-7-X-7777-X-5-7-X-7---X-5---X-|
A:-5-5-X-5-5-X-5-5-X-5-5-X-7777-X-7-7-X-----X-----X-|
E:-------------------------5555-X-5-5-X---8-X---7-X-|

E:-------------------------|
B:-------------------------|
G:-7-7-X-5-5-X-7-7-X-------|
D:-7-7-X-7-7-X-7-7-X-5-5-X-|
A:-5-5-X-5-5-X-5-5-X-5-5-X-|
E:-------------------3-3-X-|

One-Time-Riff
(On the album I play this twice, but now I only play it once)

E:------------------------------------------------3--------|
B:-----------------------------1-1-X-1-1-X-111-3/5-5-3/1p0-|
G:-----------------9-X-----9-X-0-0-X-3-3-X-----------------|
D:-7-7-X-5-7-X-5/7-9-X-5/7-9-X-2-2-X-2-2-X-----------------|
A:-7-7-X-5-7-X-5/7-7-X-5/7-7-X-3-3-X-3-3-X-----------------|
E:-5-5-X-3-5-X-3/5---X-3/5---X-----------------------------|

Repeat Verse Riff 2 X 4

Verse Riff 3

E:----------------------------------------------------|
B:-------X-5555-X---5-X---5-X-----X---5-X---5-X---5-X-|
G:-----5-X------X-----X-----X---5-X-----X-----X-----X-|
D:-2/7-7-X-5555-X-4-4-X-2-2-X-7-7-X-5-5-X-4-4-X-2-2-X-|
A:-0-0-0-X-0000-X-0-0-X-0-0-X-0-0-X-0-0-X-0-0-X-0-0-X-|
E:----------------------------------------------------|

E:--------------------------------------------------|
B:------X---5-X---5-X---5-X-----X---5-X---5-X---5-X-|
G:-7777-X-----X-----X-----X---5-X-----X-----X-----X-|
D:-7777-X-5-5-X-4-4-X-2-2-X-7-7-X-5-5-X-4-4-X-2-2-X-|
A:-0000-X-0-0-X-0-0-X-0-0-X-0-0-X-0-0-X-0-0-X-0-0-X-|
E:--------------------------------------------------|

Repeat Chorus

Bridge

E:---------------------------------------------------------------|
B:---------------------------------------------------------------|
G:-------------------------------------------------5-5-5-5-------|
D:-7-7-7-7-7-7-7-7-7-7-7-7-7-7-7-7-7-7-5-5-5-7-7-7-5-5-5-5---5---|
A:-7-7-7-7-7-7-7-7-7-7-7-7-7-7-7-7-7-7-5-5-5-7-7-7-3-3-3-3---5---|
E:-5-5-5-5-5-5-5-5-5-5-5-5-5-5-5-5-5-5-3-3-3-5-5-5-----------3---|
                                                                         X3
E:-------------------------|
B:-------------------------|
G:-7-7-5-5-4-4-7-7-3-3-----|
D:-7-7-5-5-4-4-7-7-3-3-5-5-|
A:-5-5-3-3-2-2-5-5-1-1-5-5-|
E:---------------------3-3-|

Bridge Ending

E:------------------------------------------------------|
B:------------------------------------------------------|
G:-------------------------------------------7/9-7--5---|
D:-7-7-7-7-7-7-7-7-7-7-7-7-7-7-7-7-7-7-5-5-5-7/9-7--5---|
A:-7-7-7-7-7-7-7-7-7-7-7-7-7-7-7-7-7-7-5-5-5-5/7-5--3---|
E:-5-5-5-5-5-5-5-5-5-5-5-5-5-5-5-5-5-5-3-3-3------------|

E:-------------------------|
B:-------------------------|
G:-7-7-5-5-4-4-7-7-3-3-----|
D:-7-7-5-5-4-4-7-7-3-3-5-5-|
A:-5-5-3-3-2-2-5-5-1-1-5-5-|
E:---------------------3-3-|

Repeat Chorus
( Things get a little off rhythm on the recording here. Woops :P )

For the outro you play Verse Riff 1 for about 7 measures, then end by playing Verse Riff 
2 for one and holding out that last chord.
Добавлено: 18.09.2013
Другие материалы по этой песне:
  • Аккорды и текст

Страница создана 18.09.2013
http://primanota.ru/misc-unsigned-bands/troyjcrossley-terror-chords.htm
Привет, Гость.
Предлагаем пройти революционный курс по гитаре.
Подарок от PrimaNota.Ru, забирай!