PrimaNota.ru - самый крупный в мире бесплатный архив песенных текстов, аккордов, табулатур и нот


Misc Unsigned Bands - Try Melove Me - Oh Princess - таба

Регистрация Запомнить меня
Войти через:  Facebook Google Twitter Vk Yandex Mail.ru

Misc Unsigned Bands - Try Melove Me - Oh Princess - таба

Печатать
Просмотров: 74
----------------------------------------------------------------------------
                             Oh, Princess – Try Me/Love Me
----------------------------------------------------------------------------
Tabbed by: George King
E-mail:

Tuning: Drop D

Verse
e|-------------------------------------------------------------------------|
B|-------------------------------------------------------------------------|   
G|-------------------------------------------------------------------------|
D|-------------------------------------------------------------------------|
A|-12-12-12-12-12-12-12-12-12-12-12--7--8--8-8-8-8-8-8—8h10p8/7-7h8p7------|
E|-0--0--0--0--0--0--0--0--0--0--0---0--0--0-0-0-0-0-0---------------------|
PM    ****************************         * * * * * *
   “I, I knew this girl…”

e|-------------------------------------------------------------------------|
B|-------------------------------------------------------------------------|
G|-9---/---10---/---12-----------------------------------------------------|
D|-x-------x--------x------------------------------------------------------|
A|-7---/---8----/---10-----------------------------------------------------|
E|-8---/---10--------------------------------------------------------------| 

   “I'd be dead by now”                 2x

e|-------------------------------------------------------------------------|
B|-------------------------------------------------------------------------|   
G|-10--------------------------------12-10---------------------------------|
D|-x---------------------------------x---x--------------------------------|
A|-12-12-12-12-12-12-12-12-12-12-12--10-12-121212121212—8h10p8/7-7h8p7-----|
E|-0--0--0--0--0--0--0--0--0--0--0---0--0--0-0-0-0-0-0---------------------|
PM    ****************************         * * * * * *
   “I know you now…”

e|-------------------------------------------------------------------------|
B|-------------------------------------------------------------------------|
G|-9---/---10---/---12-----------------------------------------------------|
D|-x-------x--------x------------------------------------------------------|
A|-7---/---8----/---10-----------------------------------------------------|
E|-8---/---10--------------------------------------------------------------| 

   “ (far too well..)”                 2x

Chorus


e|-------------------------------------------------------------------------|
B|-------------------------------------------------------------------------|
G|-10-10-10-10-10-10-10-10-10-10-9-9-14-14-14-14-14-14-14-9-9-9-10-10-10---|
D|-x--x--x--x--x--x--x--x--x--x--x-x-x--x--x--x--x--x--x--x-x-x-x--x--x----|
A|-8--8--8--8--8--8--8--8--8—-8--7-7-12-12-12-12-12-12-12-7-7-7-8--8--8----|
E|-0-R---------------------------------------------------------------------|
                                    “and with your tainted lips betray me..”

e|-------------------------------------------------------------------------|
B|-------------------------------------------------------------------------|
G|-101010101010101010101010--121212121212121212121212----------------------|
D|-8-8-8-8-8-8-8-8-8-8-8-8---101010101010101010101010----------------------|
A|-8-8-8-8-8-8-8-8-8-8-8-8---101010101010101010101010----------------------|
E|-8-8-8-8-8-8-8-8-8-8-8-8---101010101010101010101010----------------------|
                            “and my heart will bleed the fucking same..

e|-------------------------------------------------------------------------|
B|-------------------------------------------------------------------------|
G|-10-10-10-10-10-10-10-10-10-10-9-9-14-14-14-14-14-14-14-9-9-9-10-10-10---|
D|-x--x--x--x--x--x--x--x--x--x--x-x-x--x--x--x--x--x--x--x-x-x-x--x--x----|
A|-8--8--8--8--8--8--8--8--8—-8--7-7-12-12-12-12-12-12-12-7-7-7-8--8--8----|
E|-0--0--0--0--0--0--0--0--0--0--0-0-0--0--0--0--0--0--0--0-0-0-0--0--0----|
                             “please take mercy on my love..”
e|-------------------------------------------------------------------------|
B|-------------------------------------------------------------------------|
G|-101010101010101010101010--121212121212----------------------------------|
D|-8-8-8-8-8-8-8-8-8-8-8-8---101010101010---7--8--0--0-0-0-0-0-0-0-0-0-0---|
A|-8-8-8-8-8-8-8-8-8-8-8-8---101010101010---7--8--0--0-0-0-0-0-0-0-0-0-0---|
E|-8-8-8-8-8-8-8-8-8-8-8-8---101010101010---7--8--0--0-0-0-0-0-0-0-0-0-0---|
PM                                                   * * * * * * * * * *         
       “but bitch I know you'll have me die, this, way”                 

e|-------------------------------------------------------------------------|
B|-------------------------------------------------------------------------|
G|-------------------------------------------------------------------------|
D|-10--8--8-8-8-8-8-8-8-8-8-8-8-10--0-0-0-0-0-0-0-0-0-0-0--10-8-8-8-8-8-8-8|
A|-10--8--8-8-8-8-8-8-8-8-8-8-8-10--0-0-0-0-0-0-0-0-0-0-0--10-8-8-8-8-8-8-8|
E|-10--8--8-8-8-8-8-8-8-8-8-8-8-10--0-0-0-0-0-0-0-0-0-0-0--10-8-8-8-8-8-8-8|
PM        * * * * * * * * * * *     * * * * * * * * * * *       * * * * * *
              “Die, this, way..”

e|-------------------------------------------------------------------------|
B|-------------------------------------------------------------------------|
G|-----------------------------10/12-12/14-12-101010101010-9/10-10101010-10|
D|-----------------0-00-0-0-00-x--x--x--x--x—-8-8-8-8-8-8--8-8--8-x-xx-x-x-|
A|-----------------0-00-0-0-00-8/10-10/12--10-8-8-8-8-8-8--8-8--8-8-88-8-8-|
E|-7h8p7h8/10\8p7--0-00-0-0-00-0--0--0--0--10-8-8-8-8-8-8--8-8—-8-0-00-0-0-|
                            “your eyes turn blacker than your heart..”


e|-------------------------------------------------------------------------|
B|-------------------------------------------------------------------------|
G|10/12-12/14-12-101010101010-9/10-----------------------------------------|
D|x--x--x--x--x--8-8-8-8-8-8--8-8—0-0-0-0-0-0-0-0-0-0-0-0--10--8-----------|
A|8/-10-10/12-10-8-8-8-8-8-8--8-8-0-0-0-0-0-0-0-0-0-0-0-0--10--8-----------|
E|0--0--0--0--10-8-8-8-8-8-8--8-8-0-0-0-0-0-0-0-0-0-0-0-0—-10--8-----------|
PM                                * * * * * * * * * * * *
 “your eyes turn blacker than your heart..”

e|-------------------------------------------------------------------------|
B|-------------------------------------------------------------------------|
G|-------------------------------------------------------------------------|
D|8-8-8-8-8-8-8-8-8-8-8-8--10--0-0-0-0-0-0-0-0-0-0-0-0-10-8-8-8-8-8-8-8-8-8|
A|8-8-8-8-8-8-8-8-8-8-8-8--10--0-0-0-0-0-0-0-0-0-0-0-0-10-8-8-8-8-8-8-8-8-8|
E|8-8-8-8-8-8-8-8-8-8-8-8--10--0-0-0-0-0-0-0-0-0-0-0-0-10-8-8-8-8-8-8-8-8-8|
PM* * * * * * * * * * * *        * * * * * * * * * * *    * * * * * * 
      
e|-------------------------------------------------------------------------|
B|-------------------------------------------------------------------------|
G|8-8-101010-0R-----------0R-----------12R-----------0R--------------------|
D|8-8 101010-0R-----------0R-----------12R-----------0R--------------------|
E|8-8-101010-0R-----------0R-----------12R-----------0R--------------------|
            “But my violent cinderella..” 

e|-------------------------------------------------------------------------|
B|-------------------------------------------------------------------------|
G|-14-14-14-14-14-14-9-9-9-10-10-10-14-14-14-14-14-15-15-15-14-14-14-------|
D|-x--x--x--x--x--x--x-x-x--x--x-x--x--x--x--x--x--x--x--x--x--x--x--------|
A|-12-12-12-12-12-12-7-7-7—-8--8-8-12-12-12-12-12—13—13-13-12-12-12--------|
E|-0----------------------------------------------------------------------|
                                    “and with your tainted lips betray me..”

e|-------------------------------------------------------------------------|
B|-------------------------------------------------------------------------|
G|-101010101010101010101010--121212121212121212121212----------------------|
D|-8-8-8-8-8-8-8-8-8-8-8-8---101010101010101010101010----------------------|
A|-8-8-8-8-8-8-8-8-8-8-8-8---101010101010101010101010----------------------|
E|-8-8-8-8-8-8-8-8-8-8-8-8---101010101010101010101010----------------------|
                            “and my heart will bleed the fucking same..



e|-------------------------------------------------------------------------|
B|-------------------------------------------------------------------------|
G|-14-14-14-14-14-14-9-9-9-10-10-10-14-14-14-14-14-15-15-15-14-14-14-------|
D|-x--x--x--x--x--x--x-x-x--x--x-x--x--x--x--x--x--x--x--x--x--x--x--------|
A|-12-12-12-12-12-12-7-7-7—-8--8-8-12-12-12-12-12—13—13-13-12-12-12------|
E|-0--0--0--0--0--0--0-0-0--0--0-0--0--0--0--0--0--0--0--0--0--0--0--------|
            “please take... mercy on my love”

e|-------------------------------------------------------------------------|
B|-------------------------------------------------------------------------|
G|-101010101010101010101010--121212121212121212121212----------------------|
D|-8-8-8-8-8-8-8-8-8-8-8-8---101010101010101010101010----------7--8--0-----|
A|-8-8-8-8-8-8-8-8-8-8-8-8---101010101010101010101010----------7—-8--0-----|   
E|-8-8-8-8-8-8-8-8-8-8-8-8---101010101010101010101010----------7--8--0-----|
                            “but bitch I know you'll have me, die this way”




 
************************************

| /   slide up
| \   slide down
| h   hammer-on
| p   pull-off
| ~   vibrato
| +   harmonic
| x   Mute note
| b   Bend
| pb  Pre-bend
| br  Bend release
| pbr Pre-bend release
| brb Bend release bend

************************************
Добавлено: 01.09.2013
Другие материалы по этой песне:
  • Аккорды и текст

Страница создана 01.09.2013
http://primanota.ru/misc-unsigned-bands/try-melove-me-oh-princess-chords.htm
Привет, Гость.
Предлагаем пройти революционный курс по гитаре.
Подарок от PrimaNota.Ru, забирай!