PrimaNota.ru - самый крупный в мире бесплатный архив песенных текстов, аккордов, табулатур и нот


Misc Unsigned Bands - Tv Smith - Right Hand Rise - таба

Регистрация Запомнить меня
Войти через:  Facebook Google Twitter Vk Yandex Mail.ru

Misc Unsigned Bands - Tv Smith - Right Hand Rise - таба

Печатать
Просмотров: 81
INTRO
e---------------------------|---------------------------|
B---------------------------|---------------------------|
G--------------7777--9999---|--------------7~~~--9~~~---|
D-777-2--4444--7777--9999---|-777-2--4444--7~~~--9~~~-7-|
A-777-2--4444--5555--7777---|-777-2--4444--5~~~--7~~~-7-| 
E-555-0--2222---------------|-555-0--2222-------------5-|

VERSE
#in a land of...............   
e---------------------------|---------------------------|
B---------------------------|---------------------------|
G---------------------------|---------------------------|
D------7-----7----7----7----|------7----7----7----7-----|
A---------------------------|----5----5----5----5-------| 
E----5----5----5----5-------|---------------------------|

e---------------------------|---------------------------|
B---------------------------|---------------------------|
G---------------------------|---------------------------|
D------7----7----7----7-----|------9----9----9----9-----|
A----5----5----5----5-------|----7----7----7----7-------| 
E---------------------------|---------------------------|

CHORUS
#all eyes.....               #who wants it...
e---------------------------|---------------------------|
B---------------------------|---------------------------|
G-------------7777--9999----|--------------7777--9999---|
D-7777--4444--7777--9999----|--7--2--4--2--7777--9999---|
A-7777--4444--5555--7777----|--7--2--4--2--5555--7777---| 
E-5555--2222----------------|--5--0--2--0---------------|

BRIDGE
e---------------------------|---------------------------|
B---------------------------|---------------------------|
G--7-7-7-7------------------|--7-7-7-7----9-9-9-9-------|
D--7-7-7-7----7-7-7-7-------|--7-7-7-7----9-9-9-9-------|
A--5-5-5-5----7-7-7-7-------|--5-5-5-5----7-7-7-7-------| 
E-------------5-5-5-5-------|---------------------------|
Добавлено: 26.10.2013
Другие материалы по этой песне:
  • Аккорды и текст

Страница создана 26.10.2013
http://primanota.ru/misc-unsigned-bands/tv-smith-right-hand-rise-chords.htm
Привет, Гость.
Предлагаем пройти революционный курс по гитаре.
Подарок от PrimaNota.Ru, забирай!