PrimaNota.ru - самый крупный в мире бесплатный архив песенных текстов, аккордов, табулатур и нот


Misc Unsigned Bands - The Malmedy Massacre - Paint It Black - таба

Регистрация Запомнить меня
Войти через:  Facebook Google Twitter Vk Yandex Mail.ru

Misc Unsigned Bands - The Malmedy Massacre - Paint It Black - таба

Печатать
Просмотров: 62
Уроки эстрадного вокала в Санкт-Петербурге
-------------------------------------------------
                             Paint It Black - The Malmedy Massacre
-------------------------------------------------------------------------------
Tabbed by:Slippers Tmm's Lead guitarist
Email:Ionicinjun@aol.com
This is absolutely perfect i know because I am the Band's lead guitarist
1.Tuning:DROP B=DROP D DOWN 1.5 STEPS	
Into/outro
e|--0-0-0--0-0-0-0-0-0-0-00-0-0-0-0-0-0--------------------------------------|
B|-5-7-8-10-8-7-5-5-4-4-4-4-4-4-4-4-4-4--------------------------------------|
G|---------------------------------------------------------------------------|
D|---------------------------------------------------------------------------|
A|---------------------------------------------------------------------------|
E|---------------------------------------------------------------------------|
	Lead in          
e|---------------------------------------------------------------------------|
B|---------------------------------------------------------------------------|
G|---------------------------------------------------------------------------|
D|---------------------------------------------------------------------------|
A|---------------------------------------------------------------------------|
E|000-000-000-000-000-000----------------------------------------------------|
	riff 1
e|---------------------------------------------------------------------------|
B|---------------------------------------------------------------------------|
G|---------------------------------------------------------------------------| X2
D|---------------------------------------------------------------------------|
A|--5-7-8-10-8-7-5-5-4-5-7-54~-----------------------------------------------|
E|00-0-0-0--0-0-0-0-0-0-0-0--------------------------------------------------|
	Main riff 2
e|---------------------------------------------------------------------------|
B|---------------------------------------------------------------------------|
G|---------------------------------------------------------------------------|X2
D|-5-3-3-----3-3-3-----------------------------------------------------------|
A|-3-1-1-1-1-1-1-1-5-5-3-3-3-5-----------------------------------------------|
E|-------1-1-------5-5-3-3-3-5-----------------------------------------------|
	Riff 3 
e|---------------------------------------------------------------------------|
B|---------------------------------------------------------------------------| X4
G|---------------------------------------------------------------------------|
D|5-7-8-10-8-7-5-5-4-5-7-54--------------------------------------------------|
A|---------------------------------------------------------------------------|
E|---------------------------00----------------------------------------------|
  tr-----------------------|pm-|
	Breakdown
e|---------------------------------------------------------------------------|
B|---------------------------------------------------------------------------|
G|---------------------------------------------------------------------------|
D|---------------------------------------------------------------------------|
A|---5---6---7---8---10---8---7---5---5---4---5---7---54---------------------|
E|000-000-000-000-000--000-000-000-000-000-000-000-000-----------------------|

tr= super fast picking
pm= palm mute
| /  slide up
| \  slide down
| h  hammer-on
| p  pull-off
| ~  vibrato
| +  harmonic
| x  Mute note
===============================================================================
Song structure:
intro
lead in
Riff 1
riff 2
riff 1
riff 2
riff 1
riff 1
riff 2
riff 3
riff 2
breakdown
riff 1
riff 2
Riff 3
Outro

R
Добавлено: 09.11.2013
Другие материалы по этой песне:
  • Аккорды и текст

Страница создана 09.11.2013
http://primanota.ru/misc-unsigned-bands/the-malmedy-massacre-paint-it-black-chords.htm
Привет, Гость.
Предлагаем пройти революционный курс по гитаре.
Подарок от PrimaNota.Ru, забирай!