PrimaNota.ru - самый крупный в мире бесплатный архив песенных текстов, аккордов, табулатур и нот


Misc Unsigned Bands - The Medic Droid - Keeping Up With The Joneses - таба

Регистрация Запомнить меня
Войти через:  Facebook Google Twitter Vk Yandex Mail.ru

Misc Unsigned Bands - The Medic Droid - Keeping Up With The Joneses - таба

Печатать
Просмотров: 45
Уроки эстрадного вокала в Санкт-Петербурге
Alright this is my version of the song and i think it came out pretty good.

http://profile.myspace.com/index.cfm?fuseaction=user.viewProfile&friendID=72654814


Intro
e--12---8----12---8----12---8----12---13----|
b----10---10---10---10---10---10---10----10-|
g-------------------------------------------|
d-------------------------------------------|
a-------------------------------------------|
E-------------------------------------------|


verse
the light are out on......
e-----
b--0--
g--2--
d--2--  12x
a--0--
E-----

e-----------|
b-----------|
g-----------|
d--4-4-5-5--|
a--2-2-3-3--|
E-----------|

e-----
b-----
g-----
d--2--  16x
a--3--
E--1--


when you come back down......
same as verse but palm mute it


when you were a young girl....

same structure but hitting the notes individually
e----------|
b----------|
g------2---|
d----2---2-|  3x
a--0-------|
E----------|

e-----------|
b-----------|
g-----------|
d----4----5-|
a--2---3----|
E-----------|

e---------|
b---------|
g---------|
d------2--|  4x
a----3--3-|
E--1------|

chorus

e----------------|
b----------------|
g--5-------------|
d--5---5---7---3-|
a--3---5---7---3-|
E------3---5---1-|


breakdown

e---
b---
g--2  throughout the whole breakdown
d--2
a--0
E---

gt.2 towards end of breakdown

e--13-12----10----8-7----8----10----8-7-------|
b--------10----10-----10---10----10-----10-10-|
g---------------------------------------------|
d---------------------------------------------|
a---------------------------------------------|
E---------------------------------------------|


repeat chorus
Добавлено: 24.01.2014
Другие материалы по этой песне:
  • Аккорды и текст

Страница создана 24.01.2014
http://primanota.ru/misc-unsigned-bands/the-medic-droid-keeping-up-with-the-joneses-chords.htm
Привет, Гость.
Предлагаем пройти революционный курс по гитаре.
Подарок от PrimaNota.Ru, забирай!