PrimaNota.ru - самый крупный в мире бесплатный архив песенных текстов, аккордов, табулатур и нот


Misc Unsigned Bands - The Medic Droid - Sho Fer - таба, видео

Регистрация Запомнить меня
Войти через:  Facebook Google Twitter Vk Yandex Mail.ru

Misc Unsigned Bands - The Medic Droid - Sho Fer - таба, видео

Печатать
Просмотров: 41
well, im not so sure about this tab, because i had no reference, but it sounds great 
:]] its basically 3 chords, so anyone can play it.
strumming isnt totally correct, listen to the song, you'll get it.
tell me if i need to correct anything.

first tabbb ;D


(Lyrics included)

the medic droid website-

http://www.myspace.com/themedicdroid


I sat and listened to the sirens,
|-3--3---3-----3---3---3----3-----|
|---------------------------------|
|---------------------------------|
|---------------------------------|
|-2--2---2-----2---2---2----2-----|
|-3--3---3-----3---3---3----3-----|

smoked cigarettes and watched the lights dim.

|---------------------------------|
|-1---1--1--1----1--1---1--1------|
|-2---2--2--2----2--2---2--2------|
|-2---2--2--2----2--2---2--2------|
|---------------------------------|
|---------------------------------|

We layed in bed and watched as time passed.

|---------------------------------|
|---------------------------------|
|---------------------------------|
|-2--2--2---2---2----2----2-------|
|-2--2--2---2---2----2----2-------|
|---------------------------------|

How did we let things get so bad now?
|---------------------------------|
|-1---1--1--1----1--1-------------|
|-2---2--2--2----2--2---2--2------|
|-2---2--2--2----2--2---2--2------|
|---------------------------------|
|---------------------------------|

As the cigarette burned down to my lips,
|-3--3--3---3-3------------------------|
|-----------------1--1--1--1--1--1-----|
|-----------------2--2--2--2--2--2-----|
|-----------------2--2--2--2--2--2--2--|
|-2--2--2---2-2---------------------2--|
|-3--3--3---3-3------------------------|

as the cigarette burned down, burned down.
|--------------------------------------|
|-----------------1~-------------------|
|-----------------2~-------------------|
|-2--2--2--2--2---2~-------------------|
|-2--2--2--2--2------------------------|
|--------------------------------------|

As feelings fade, the night is ending.
|-3--3--3---3-3------------------------|
|-----------------1-1-1-1-2--2---------|
|-----------------2-2-2-2-2--2---------|
|-----------------2-2-2-2-2--2---------|
|-2--2--2---2-2------------------------|
|-3--3--3---3-3------------------------|

And 12 o'clock my foot is sleeping.
|--------------------------------------|
|-----------------1---1---1----1-------|
|-----------------2---2---2----2-------|
|-2--2--2--2--2---2---2---2----2-------|
|-2--2--2--2--2------------------------|
|--------------------------------------|
So I ask you one more time,
|-3--3--3---3-3------------------------|
|-----------------1--1--1--1--1--1-----|
|-----------------2--2--2--2--2--2-----|
|-----------------2--2--2--2--2--2-----|
|-2--2--2---2-2------------------------|
|-3--3--3---3-3------------------------|

are you still in love tonight girl?
|--------------------------------------|
|-----------------1---1---1----1-------|
|-----------------2---2---2----2-------|
|-2--2--2--2--2---2---2---2----2-------|
|-2--2--2--2--2------------------------|
|--------------------------------------|

Fer sure maybe, Fer sure not,
|-3--3--3---3-3------------------------|
|-----------------1--1--1--1--1--1-----|
|-----------------2--2--2--2--2--2-----|
|-----------------2--2--2--2--2--2-----|
|-2--2--2---2-2------------------------|
|-3--3--3---3-3------------------------|

Fer sure eh, Fer sure I'm gone.
|---------x----------------------------|
|---------x-------1---1---1----1-------|
|---------x-------2---2---2----2-------|
|-2--2----x--2----2---2---2----2-------|
|-2--2----x--2-------------------------|
|---------x----------------------------|

And now we are all over, and I stare at the wall as she
|-3--3--3---3-3----------------------------------|
|-----------------1--1--1--1--1--1--1----1--1--1-|
|-----------------2--2--2--2--2--2--2----2--2--2-|
|-----------------2--2--2--2--2--2--2----2--2--2-|
|-2--2--2---2-2----------------------------------|
|-3--3--3---3-3----------------------------------|

reflects the bad of being in love.
|--------------------------------------|
|-----------------1---1---1----1-------|
|-----------------2---2---2----2-------|
|-2--2--2--2--2---2---2---2----2-------|
|-2--2--2--2--2------------------------|
|--------------------------------------|

And so I ask you one more time,
|-3--3--3---3-3------------------------|
|-----------------1--1--1--1--1--1-----|
|-----------------2--2--2--2--2--2-----|
|-----------------2--2--2--2--2--2--2--|
|-2--2--2---2-2---------------------2--|
|-3--3--3---3-3------------------------|


are you still in love tonight girl?
|--------------------------------------|
|-----------------1---1---1----1-------|
|-----------------2---2---2----2-------|
|-2--2--2--2--2---2---2---2----2-------|
|-2--2--2--2--2------------------------|
|--------------------------------------|

Fer sure maybe, Fer sure not,
|-3--3--3---3-3------------------------|
|-----------------1--1--1--1--1--1-----|
|-----------------2--2--2--2--2--2-----|
|-----------------2--2--2--2--2--2-----|
|-2--2--2---2-2------------------------|
|-3--3--3---3-3------------------------|

Fer sure eh, Fer sure I'm gone.
|---------x----------------------------|
|---------x-------1---1---1----1-------|
|---------x-------2---2---2----2-------|
|-2--2----x--2----2---2---2----2-------|
|-2--2----x--2-------------------------|
|---------x----------------------------|

    and all that i have now is,
|-3--3--3---3-3------------------------|
|-----------------1--1--1--1--1--1-----|
|-----------------2--2--2--2--2--2-----|
|-----------------2--2--2--2--2--2-----|
|-2--2--2---2-2------------------------|
|-3--3--3---3-3------------------------|

and all that i have now is..
|------------------------------------|
|---------------1---1---1----1-------|
|---------------2---2---2----2-------|
|-2--2-----2----2---2---2----2-------|
|-2--2-----2-------------------------|
|------------------------------------|

rock music, and scenester bitches,
|-3--3--3---3-3------------------------|
|-----------------1--1--1--1--1--1-----|
|-----------------2--2--2--2--2--2-----|
|-----------------2--2--2--2--2--2-----|
|-2--2--2---2-2------------------------|
|-3--3--3---3-3------------------------|

cocaine lines, and long extensions.
|------------------------------------|
|---------------1---1---1----1-------|
|---------------2---2---2----2-------|
|-2--2-----2----2---2---2----2-------|
|-2--2-----2-------------------------|
|------------------------------------|

As the cigarette burned down to my lips,
|-3--3--3---3-3------------------------|
|-----------------1--1--1--1--1--1-----|
|-----------------2--2--2--2--2--2-----|
|-----------------2--2--2--2--2--2--2--|
|-2--2--2---2-2---------------------2--|
|-3--3--3---3-3------------------------|

as the cigarette burned down, burned down.
|------------------------------------|
|------------------------------------|
|------------------------------------|
|-2--2--2--2--2----------------------|
|-2--2--2--2--2----------------------|
|------------------------------------|

As the cigarette burned down, burned down.
|------------------------------------|
|----------------------1~------------|
|----------------------2~------------|
|-2--2--2--2--2--------2~------------|
|-2--2--2--2--2----------------------|
|------------------------------------|


Thanks :] enjoy
Добавлено: 06.12.2013
Другие материалы по этой песне:
  • Аккорды и текст

Страница создана 06.12.2013
http://primanota.ru/misc-unsigned-bands/the-medic-droid-sho-fer-chords.htm
Привет, Гость.
Предлагаем пройти революционный курс по гитаре.
Подарок от PrimaNota.Ru, забирай!