PrimaNota.ru - самый крупный в мире бесплатный архив песенных текстов, аккордов, табулатур и нот


Misc Unsigned Bands - The Beginning Of The End - Funky Nassau - бас-таба

Регистрация Запомнить меня
Войти через:  Facebook Google Twitter Vk Yandex Mail.ru

Misc Unsigned Bands - The Beginning Of The End - Funky Nassau - бас-таба

Печатать
Просмотров: 45
the main riff:
-----------------------------------------------------------------|
-----------------------------------------------------------------|
--------5-7-5-7-5-------5-7/9-9------------5-7-5-7-5-------------|
--7-5-7-----------7-5-7--------------7-5-7-----------7-5-7-5-2-5-|

you can make little variations where the 7/9 is, like:
---------------------------------------|
------------------------------7-9-7----|
--------5-7-5-7-5-------5-7/9-------9--|
--7-5-7-----------7-5-7----------------|

the bass solo goes like this:
--------------------|
--------------------|
--------------5-----| 2x
--555-5-55-77---7---|
Добавлено: 06.11.2013
Другие материалы по этой песне:
  • Аккорды и текст

Страница создана 06.11.2013
http://primanota.ru/misc-unsigned-bands/the-beginning-of-the-end-funky-nassau-chords.htm
Привет, Гость.
Предлагаем пройти революционный курс по гитаре.
Подарок от PrimaNota.Ru, забирай!