PrimaNota.ru - самый крупный в мире бесплатный архив песенных текстов, аккордов, табулатур и нот


Misc Unsigned Bands - The Jim Carrol Band - People Who Died - бас-таба

Регистрация Запомнить меня
Войти через:  Facebook Google Twitter Vk Yandex Mail.ru

Misc Unsigned Bands - The Jim Carrol Band - People Who Died - бас-таба

Печатать
Просмотров: 49
Уроки эстрадного вокала в Санкт-Петербурге
Title: People Who Died
Artist: The Jim Carrol Band
Tabbed By: Gerald Mahfood
Email: gmahfood@hotmail.com

Intro:

G|-----------------------------------------------------------|
D|-----------------------------------------------------------|
A|-1--1--1--1------------------------------------------------|
E|-----------------------------------------------------------|

Verse 1:

G|-----------------------------------------------------------|
D|---------------------------------1111111111111111----------|
A|-11111111111111111111111111111111--------------------------|
E|-----------------------------------------------------------|

G|-----------------------------------------------------------|
D|-----------------3333333333333333--------------------------|
A|-1111111111111111----------------1111111111111111----------|
E|-----------------------------------------------------------|

Chorus 1:

G|-----------------------------------------------------------|
D|----------------------------------1111111111111111---------|
A|-111111111111111111111111111--3--5-------------------------|
E|-----------------------------------------------------------|

G|-----------------------------------------------------------|
D|-----------------3333333333333333--------------------------|
A|-1111111111111111----------------1111111111111111----------|
E|-----------------------------------------------------------|

Verse 2 - Same as Verse 1

Chorus 2:

G|-----------------------------------------------------------|
D|-----------------------------------1111111111111111--------|
A|-11111111111--3--511111111111--3--5------------------------|
E|-----------------------------------------------------------|

G|-----------------------------------------------------------|
D|-----------------3333333333333333--------------------------|
A|-1111111111111111----------------1111111111111111----------|
E|-----------------------------------------------------------|

Verse 3 - Same as Verse 1

Chorus 3 - Same as Chorus 2

Guitar Solo 1 - Same as Chorus 1

Verse 4 - Same as Verse 1

Chorus 3 - Same as Chorus 2

Verse 5 - Same as Verse 1

Chorus 5 -  same as Chorus 2

Guitar Solo 2 - Same as Chorus 1

Verse 6 - Same as Verse 1

Chorus 6 - Same as Chorus 2

Verse 7 - Same as Verse 1

Chorus 7 - Same as Chorus 2

Verse 8 - Same as Verse 1

Chorus 8 - Same as Chorus 2 (repeat 2x)

Outro:

G|-----------------------------------------------------------|
D|-----------------------------------------------------------|
A|-01-01-01-01-1---------------------------------------------|
E|-----------------------------------------------------------|
Добавлено: 25.01.2014
Другие материалы по этой песне:
  • Аккорды и текст

Страница создана 25.01.2014
http://primanota.ru/misc-unsigned-bands/the-jim-carrol-band-people-who-died-chords.htm
Привет, Гость.
Предлагаем пройти революционный курс по гитаре.
Подарок от PrimaNota.Ru, забирай!