PrimaNota.ru - самый крупный в мире бесплатный архив песенных текстов, аккордов, табулатур и нот


Misc Unsigned Bands - The Gaia Corporation - Wonderwall - бас-таба

Регистрация Запомнить меня
Войти через:  Facebook Google Twitter Vk Yandex Mail.ru

Misc Unsigned Bands - The Gaia Corporation - Wonderwall - бас-таба

Печатать
Просмотров: 49
#------------------------------------------------------------------------------#
#This file is the author's own work and represents their interpretation of the #
#song. You may only use this file for private study, scholarship, or research. #
#------------------------------------------------------------------------------#

Tabbed by nosferus88

The Gaia Corporation - Wonderwall

These are the bass tabs for the song "Wonderwall", originally composed by Oasis
and covered by The Gaia Corporation.
Sounds more "hardcore", and it's really easy to play..notes pretty close to the
original version..

Standard Tuning EADG

Intro
G ----------------------------------|
D ----------------------------------|
A --------00000000--------22222222--|
E 22222222--------00000000----------| x3

G ---------------------------------|
D ---------------------------------|
A --------00000000-----------------|
E 22222222--------0000000000000000-|

Verse
G ------------------|
D ------------------|
A ----00-0----22-2--|
E 22-2----00-0------| x4

G ----------------|
D ----------------|
A ----000-----222-|
E 222-----000-----| x4 (together with guitar)

Pre-chorus
G --------------------------------|
D --------------------------------|
A 00000000222222224444444444444444
E -------------------------------- x2

G --------------------------------|
D --------------------------------|
A 00000000222222224-2-0-0-24------|
E --------------------------2~~~--|

Chorus (same as Intro)

G ----------------------------------|
D ----------------------------------|
A --------00000000--------22222222--|
E 22222222--------00000000----------| x3

G --------------------------------|
D --------------------------------|
A --------00000000----------------|
E 22222222--------5~-4~-2~~~------|

2nd verse
G ----------------------|
D ----------------------|
A -----000-0-----222-2--|
E 222-2-----000-0-------| x4

Pre-chorus
G --------------------------------|
D --------------------------------|
A 00000000222222224444444444444444
E --------------------------------

G --------------------------------|
D --------------------------------|
A 00000000222222224444444444.44.--
E --------------------------------

G --------------------------------|
D --------------------------------|
A 00000000222222224-2-0-0-24------|
E --------------------------2~~~--|

Chorus (same as Intro)
G ----------------------------------|
D ----------------------------------|
A --------00000000--------22222222--|
E 22222222--------00000000----------| x7

G --------------------------------|
D --------------------------------|
A --------00000000----------------|
E 22222222--------5~-4~-2~~~------|

That's it...I'm not 100% sure about the Pre-chorus, since the notes in the
original version are 5-7-9 (A string)
and not 0-2-4, but that sounds right to me..5-7-9 sound to high..hope you enjoy
it..for any comment, question or mistake, contact me on my profile..
Добавлено: 30.11.2013
Другие материалы по этой песне:
  • Аккорды и текст

Страница создана 30.11.2013
http://primanota.ru/misc-unsigned-bands/the-gaia-corporation-wonderwall-chords.htm
Привет, Гость.
Предлагаем пройти революционный курс по гитаре.
Подарок от PrimaNota.Ru, забирай!