PrimaNota.ru - самый крупный в мире бесплатный архив песенных текстов, аккордов, табулатур и нот


Misc Unsigned Bands - Realising Fate - Beside Me - таба

Регистрация Запомнить меня
Войти через:  Facebook Google Twitter Vk Yandex Mail.ru

Misc Unsigned Bands - Realising Fate - Beside Me - таба

Печатать
Просмотров: 40
this is an awesome song done by an awesome band, even though its of three 14 year olds 
brisbane, it starts of with quiet distortion, it sorta sounds like metallica, then it 
on to a bass break, then the rest of the song. this is an unsigned band, SOMEBODY SIGN THESE GUYS!


intro(heavy distortion but lightly played)
e---------------------------------------------|
b---------------------------------------------|
g-----0------------------------0--------------|     x4
d---4---4~--------0h2-0~-----4---4---0--------|
a-2-----------0h2----------2------------------|
E---------------------------------------------|

e--------------------------------|
b--------------------------------|
g--------------------------------|    x3
d-----0------------------0-------|
a---4---4-----0-2-0----4---4--0--|
E-2-------0h2--------2-----------|

e------------------------------------|
b------------------------------------|
g------------------------------------|
d-----0-------------2h4-2------------|
a---4---4-----0-2-0-------2h4-2-0----|
E-2-------0h2------------------------|

(wait for bass break)
bass break
-----------------------|
-----------------------|        x4
-003005003005006050305-
-----------------------

------------------|
------------------|
------------------|
-22-2~-----22-2~--|

(whole band comes in)
pre verse(heavy distortion/vol. high)1st part
e-----------------------------------------|
b-----------------------------------------|
g-----------------------------------------|
d-----------------------------------------|
a--22222222222222222222222222------2------|
E--22222222222222222222222222------2------|

2nd part
e-------------------------------------------------------------------|
b-------------------------------------------------------------------|
g--------99999999999---44444444444-----------4444444----------------|
d-12/----99999999999---44444444444--5555555--4444444----------------| x5
a-12/----77777777777---22222222222--5555555--2222222----------------|
E-----------------------------------3333333-------------------------|

3rd part
e-------------------------------------------------------------------|
b-------------------------------------------------------------------|
g-----------------2222----2222----8-10-11-10-----10-11/13-11-10-----|
d--4444----4444---3333----3333---------------11---------------------|
a--4444----4444---3333----3333--------------------------------------|
E--2222----2222---1111----1111--------------------------------------|

chorus
e-------------------------------------|
b-------------------------------------|
g-------------------------------------|
d-----0-------4-------0-------4-------|
a---4---4---2---2---4---4---2---2-----|
e-2-------3-------2-------3-----------|

e--------------------|      ------------------|
b--------------------|      ------------------|
g--------------------| x3   -------4----------|
d--4444--6--4444--8--|      -------5----------|
a--4444--6--4444--8--|      -------5----------|
E--2222--4--2222--6--|      -------3----------|


repeat 2nd part of verse


repeat chorus

outro
e--------------------|
b--------------------|
g--------------------|  x2
d-2222--5--2222--8---|
a-2222--5--2222--8---|
E-------3--------6---|

e----------|
b----------|
g---2------|
d---3------|
a---3------|
E---1------|


and thats it!its an awesome song, but the band hasnt released it yet as theyre unsigned 
dont go looking for it on limewire and itunes and stuff.
please comment!
Добавлено: 03.11.2013
Другие материалы по этой песне:
  • Аккорды и текст

Страница создана 03.11.2013
http://primanota.ru/misc-unsigned-bands/realising-fate-beside-me-chords.htm
Привет, Гость.
Предлагаем пройти революционный курс по гитаре.
Подарок от PrimaNota.Ru, забирай!