PrimaNota.ru - самый крупный в мире бесплатный архив песенных текстов, аккордов, табулатур и нот


Misc Unsigned Bands - Rejected Theory - Midnight Rain - таба, видео

Регистрация Запомнить меня
Войти через:  Facebook Google Twitter Vk Yandex Mail.ru

Misc Unsigned Bands - Rejected Theory - Midnight Rain - таба, видео

Печатать
Просмотров: 32
-----------------------------------------------------------------
Midnight rain - Rejected Theory
-----------------------------------------------------------------
Tabbed by: Jake Brandquist	
Email: lilzerke@yahoo.com

Tuning: standard


	this is a song I resently created...I am new to the guitar, so it isn't very good...
	I just wanted to put it up so newbies like myself could practice multiple chords...even
	though it's pretty much on the low E.


e|---------------------------------------------------------------|
B|---------------------------------------------------------------|
G|---------------------------------------------------------------|
D|---------------------------------------------------------------|
A|-7-6-------7-6-----7-6----------7-6-----7-6---9---7-6----------|
E|-----7-0-------7-------7-0-0-0------7-------7---------7--------|

e|---------------------------------------------------------------|
B|---------------------------------------------------------------|
G|---------------------------------------------------------------|
D|---------------------------------------------------------------|
A|7-6---9-9-9---7-6----------------------------------------------|
E|----7-------------7-7-7-7-0p---0-0-0-6-6-6-0-0-0-8-8-8-0-0-0---|

e|---------------------------------------------------------------|
B|---------------------------------------------------------------|
G|---------------------------------------------------------------|
D|---------------------------------------------------------------|
A|---------------------------------------------------------------|
E|6-6-6-0-0-0-8-8-8-0-0-0-7-7-0-0-0-5-5-0-0-0-3-3-0-0-0-2-0-0-0--|

e|---------------------------------------------------------------|
B|---------------------------------------------------------------|
G|---------------------------------------------------------------|
D|---------------------------------------------------------------|
A|---------------------------------------------------------------|
E|7-7-7-0-0-0-5-5-5-0-0-0-3-3-3-0-0-0-2~---0-0-7-0-8-0-7-0-0--6--|

e|---------------------------------------------------------------|
B|---------------------------------------------------------------|
G|---------------------------------------------------------------|
D|---------------------------------------------------------------|
A|---------------------------------------------------------------|
E|0-0--5--0-0-7-0-8-0-7-0-0-0-6-0-0--5-0-0-4-0-0-3-4-0-0-0-7-5--|

e|---------------------------------------------------------------|
B|---------------------------------------------------------------|
G|---------------------------------------------------------------|
D|---------------------------------------------------------------|
A|---------------------------------------------------------------|
E|-3-3-3-4-2-2-0-0-0-7-5-5-3-3-3-4-2-0-0-0-7-5-3-3-3-4-2---------|

e|---------------------------------------------------------------|
B|---------------------------------------------------------------|
G|---------------------------------------------------------------|
D|---------------------------------------------------------------|
A|---------------------------------------------------------------|
E|0-0-0-7-5-3-3-3-4-2-0-0-2-3-0-0-8-7-0-0-2-3-0-0-8-7-0-0-2-3-0--|

e|---------------------------------------------------------------|
B|---------------------------------------------------------------|
G|---------------------------------------------------------------|
D|---------------------------------------------------------------|
A|---------------------------------------------------------------|
E|0-8-7-0-0-2-3-2-0-0-0-2-3-2-0-0-0-2-3-2~-3-2-0-----------------|


 p  pull-off
 ~  vibrato

Добавлено: 23.08.2013
Другие материалы по этой песне:
  • Аккорды и текст

Страница создана 23.08.2013
http://primanota.ru/misc-unsigned-bands/rejected-theory-midnight-rain-chords.htm
Привет, Гость.
Предлагаем пройти революционный курс по гитаре.
Подарок от PrimaNota.Ru, забирай!