PrimaNota.ru - самый крупный в мире бесплатный архив песенных текстов, аккордов, табулатур и нот


Misc Unsigned Bands - Red Light Knights - Rodeo Clown - таба

Регистрация Запомнить меня
Войти через:  Facebook Google Twitter Vk Yandex Mail.ru

Misc Unsigned Bands - Red Light Knights - Rodeo Clown - таба

Печатать
Просмотров: 49
-------------------------------------------------------------------------------
                             RODEO CLOWN - Red Light Knights
-------------------------------------------------------------------------------
Tabbed by: Gerard Cordwell
Email:

Tuning: Standard Tuning - EADGBe

Standard Tuning - EADGBe

New unsigned artist.

Intro Riff:
(Part 1)

e|------------------------------------------|
B|------------------------------------------|
G|------------------------------------------|
D|--12--/--14--\--12--\--9------------------|    repeat 3x
A|--10--/--12--\--10--\--7------------------|
E|------------------------------------------|

(Part 2)
On fourth time round, do this:
e|------------------------------------------|
B|------------------------------------------|
G|------------------------------------------|
D|--12--/--14--\--12--/--14-----------------|
A|--10--/--12--\--10--/--12-----------------|
E|------------------------------------------|

Verse 1 - Nothing played.

Chorus - Play the whole intro riff once

Verse 2 - Nothing played.

Chorus - Again, repeat whole intro riff once

SOLO:

e|---15----15-12-10--12-10-------------------------------|
B|-------------------------------------------------------|
G|---------------------------16----16-14-12-14-16--------|
D|-------------------------------------------------------|
A|-------------------------------------------------------|
E|-------------------------------------------------------|

(Then this);

e|---15----15-12-10--12-10-12
Добавлено: 16.09.2013
Другие материалы по этой песне:
  • Аккорды и текст

Страница создана 16.09.2013
http://primanota.ru/misc-unsigned-bands/red-light-knights-rodeo-clown-chords.htm
Привет, Гость.
Предлагаем пройти революционный курс по гитаре.
Подарок от PrimaNota.Ru, забирай!