PrimaNota.ru - самый крупный в мире бесплатный архив песенных текстов, аккордов, табулатур и нот


Misc Unsigned Bands - Powerglove - Tetris Theme - таба

Регистрация Запомнить меня
Войти через:  Facebook Google Twitter Vk Yandex Mail.ru

Misc Unsigned Bands - Powerglove - Tetris Theme - таба

Печатать
Просмотров: 35
Tetris Theme Song Lead Guitar Tabs

Not an official tab and is not guarenteed 100% accurate.

Tabbed by Jack Fliegler (www.myspace.com/jackfliegler)

Written by Powerglove (www.myspace.com/vgmetal)

Eb :| ---------------------------|-----------12---10----|--------------------|-------------------|
Bb :| 17---12-13-15-17-p15-13-12-|--------13---------13-|12-----13-15---17---|13-----------------|
Gb :|*---------------------------|14---14---------------|--------------------|-----14---14-------|
Db :|*---------------------------|----------------------|--------------------|-------------------|
Ab :| ---------------------------|----------------------|--------------------|-------------------|
Eb :| ---------------------------|----------------------|--------------------|-------------------|

Eb :-------13-17-17-15-13-p15-13|12--------12-12-12-10----|----------------12---|
Bb :15--------------------------|-------13-------------13-|12---12-13-15--------|
Gb :----------------------------|-------------------------|---------------------|
Db :----------------------------|-------------------------|---------------------|
Ab :----------------------------|-------------------------|---------------------|
Eb :----------------------------|-------------------------|---------------------|

Eb :------------------- 1|
Bb :13----------------- ||
Gb :-----14---14-------*||
Db :-------------------*||
Ab :------------------- ||
Eb :------------------- ||



Eb :------------------|------------------|------------------|------------------|------------------|
Bb :17-------13-------|15-------12-------|13----------------|---------12-------|17-------13-------|
Gb :------------------|------------------|---------14-------|13----------------|------------------|
Db :------------------|------------------|------------------|------------------|------------------|
Ab :------------------|------------------|------------------|------------------|------------------|
Eb :------------------|------------------|------------------|------------------|------------------|

Eb :------------------|---------17-------|16---------------|
Bb :15-------12-------|13----------------|-----------------|
Gb :------------------|------------------|-----------------|
Db :------------------|------------------|-----------------|
Ab :------------------|------------------|-----------------|
Eb :------------------|------------------|-----------------|



Eb :12-0-0-0-7-0-8-0-10-0-0-0-8-0-7-0|5-0-0-0-5-0-8-0-12-0-0-0-10-0-8-0|
Bb :---------------------------------|---------------------------------|
Gb :---------------------------------|---------------------------------|
Db :---------------------------------|---------------------------------|
Ab :---------------------------------|---------------------------------|
Eb :---------------------------------|---------------------------------|

Eb :7-0-0-0-0-0-8-0-10-0-0-0-12-0-0-0|8-0-0-0-5-0-0-0-5-0-0-0-0-0-0-0|-------13-17-17-15-13-15-13|
Bb :---------------------------------|-------------------------------|15-------------------------|
Gb :---------------------------------|-------------------------------|---------------------------|
Db :---------------------------------|-------------------------------|---------------------------|
Ab :---------------------------------|-------------------------------|---------------------------|
Eb :---------------------------------|-------------------------------|---------------------------|

Eb :12-13----12-------------|
Bb :------15----13-15-12-13-|
Gb :------------------------|
Db :------------------------|
Ab :------------------------|
Eb :------------------------|

Eb :------------------------------12-p13-12-16-p17-16-13-p12-10--------------|-------------------|
Bb :--------------------12-p13-12-------------------------------13--12-p13-12|-------------------|
Gb :----------13-p14-13------------------------------------------------------|14---13---14-------|
Db :14-p15-14----------------------------------------------------------------|-------------------|
Ab :-------------------------------------------------------------------------|-------------------|
Eb :-------------------------------------------------------------------------|-------------------|



Eb :---------------------------|------------------------|------------------------------|
Bb :---------20-19-20----------|------------------------|------------------------------|
Gb :------------------19-20-17-|19----17----------------|------------------------------|
Db :---------------------------|---20----19-20-17-19----|17----------------------------|
Ab :---------------------------|---------------------21-|---17-17-18-15-17-17-17-18-15-|
Eb :15-15-15-------------------|------------------------|------------------------------|

Eb :---------------------------|------------------------|------------------------------|
Bb :---------20-19-20----------|------------------------|------------------------------|
Gb :------------------19-20-17-|19----17----------------|------------------------------|
Db :---------------------------|---20----19-20-17-19----|17----------------------------|
Ab :17-17-17-------------------|---------------------21-|---17-17-18-15-17-17-17-18-15-|
Eb :---------------------------|------------------------|------------------------------|



Eb :------------------------|------------------------|
Bb :------------------------|------------------------|
Gb :------------------------|------------------------|
Db :17-----------19-19-16-16|17-----------19-19-16-16|
Ab :------------------------|------------------------|
Eb :------------------------|------------------------|



Eb :---------------------------|------------------------|------------------------------|
Bb :---------19-18-19----------|------------------------|------------------------------|
Gb :------------------18-19-16-|18----16----------------|------------------------------|
Db :---------------------------|---19----18-19-16-18----|16----------------------------|
Ab :---------------------------|---------------------20-|---16-16-17-14-16-16-16-17-14-|
Eb :14-14-14-------------------|------------------------|------------------------------|

Eb :---------------------------|------------------------|------------------------------|
Bb :---------19-18-19----------|------------------------|------------------------------|
Gb :------------------18-19-16-|18----16----------------|------------------------------|
Db :---------------------------|---19----18-19-16-18----|16----------------------------|
Ab :16-16-16-------------------|---------------------20-|---16-16-17-14-16-16-16-17-14-|
Eb :---------------------------|------------------------|------------------------------|



Eb :------------------------|------------------------|------------------|
Bb :------------------------|------------------------|------------------|
Gb :------------------------|------------------------|---------18-------|
Db :16-----------18-18-15-15|16-----------18-18-15-15|16----------------|
Ab :------------------------|------------------------|------------------|
Eb :------------------------|------------------------|------------------|



Eb :| --------------------|------------------------------|------------------------------|
Bb :| 19--------19--------|------------------------------|------------------------------|
Gb :|*-----18--------18---|19-----19-21-19-18------------|----------18------------------|
Db :|*--------------------|-----------------------19-----|21-----21----21-19------------|
Ab :| --------------------|------------------------------|-----------------------21-----|
Eb :| --------------------|------------------------------|------------------------------|

Eb :----------------------------- 1|
Bb :----------------------------- ||
Gb :-----------------------------*||
Db :18-----18-19-18--------------*||
Ab :----------------21----------- ||
Eb :----------------------------- ||



Eb :| --------------------|-------------------------------- 1|
Bb :| 19---19---19---19---|19---19------------------------- ||
Gb :|*18---19---18---19---|18---19-18-18-21-18-18-19-18-18-*||
Db :|*--------------------|--------------------------------*||
Ab :| --------------------|-------------------------------- ||
Eb :| --------------------|-------------------------------- ||



Eb :| ------------------------------------|---------------------------- 3|
Bb :| ------------------------------------|---------------------------- ||
Gb :|*14-13-14-16-14-13-14-13-14-16-14-13-|14-13----------13-----------*||
Db :|*------------------------------------|------16-14-16----16--------*||
Ab :| ------------------------------------|---------------------------- ||
Eb :| ------------------------------------|---------------------------- ||



Eb :-----------------|------------------|
Bb :-----------------|------------------|
Gb :-----------------|---------16-------|
Db :16---------------|14----------------|
Ab :-----------------|------------------|
Eb :-----------------|------------------|



Eb :| ---------------------------|-----------12---10----|--------------------|-------------------|
Bb :| 17---12-13-15-17-p15-13-12-|--------13---------13-|12-----13-15---17---|13-----------------|
Gb :|*---------------------------|14---14---------------|--------------------|-----14---14-------|
Db :|*---------------------------|----------------------|--------------------|-------------------|
Ab :| ---------------------------|----------------------|--------------------|-------------------|
Eb :| ---------------------------|----------------------|--------------------|-------------------|

Eb :-------13-17-17-15-13-p15-13|12--------12-12-12-10----|----------------12---|
Bb :15--------------------------|-------13-------------13-|12---12-13-15--------|
Gb :----------------------------|-------------------------|---------------------|
Db :----------------------------|-------------------------|---------------------|
Ab :----------------------------|-------------------------|---------------------|
Eb :----------------------------|-------------------------|---------------------|

Eb :------------------- 1|
Bb :13----------------- ||
Gb :-----14---14-------*||
Db :-------------------*||
Ab :------------------- ||
Eb :------------------- ||



Eb :------------------|------------------|------------------|------------------|------------------|
Bb :17-------13-------|15-------12-------|13----------------|---------12-------|17-------13-------|
Gb :------------------|------------------|---------14-------|13----------------|------------------|
Db :------------------|------------------|------------------|------------------|------------------|
Ab :------------------|------------------|------------------|------------------|------------------|
Eb :------------------|------------------|------------------|------------------|------------------|

Eb :------------------|---------17-------|16---------------|
Bb :15-------12-------|13----------------|-----------------|
Gb :------------------|------------------|-----------------|
Db :------------------|------------------|-----------------|
Ab :------------------|------------------|-----------------|
Eb :------------------|------------------|-----------------|



Eb :| ---------------------------|-----------12---10----|--------------------|-------------------|
Bb :| 17---12-13-15-17-p15-13-12-|--------13---------13-|12-----13-15---17---|13-----------------|
Gb :|*---------------------------|14---14---------------|--------------------|-----14---14-------|
Db :|*---------------------------|----------------------|--------------------|-------------------|
Ab :| ---------------------------|----------------------|--------------------|-------------------|
Eb :| ---------------------------|----------------------|--------------------|-------------------|

Eb :-------13-17-17-15-13-p15-13|12--------12-12-12-10----|----------------12---|
Bb :15--------------------------|-------13-------------13-|12---12-13-15--------|
Gb :----------------------------|-------------------------|---------------------|
Db :----------------------------|-------------------------|---------------------|
Ab :----------------------------|-------------------------|---------------------|
Eb :----------------------------|-------------------------|---------------------|



Eb :------------------- 1|
Bb :13----------------- ||
Gb :-----14---14-------*||
Db :-------------------*||
Ab :------------------- ||
Eb :------------------- ||

Eb :----------------|
Bb :----------------|
Gb :2---------------|
Db :2---------------|
Ab :0---------------|
Eb :----------------|
Добавлено: 01.01.2014
Другие материалы по этой песне:
  • Аккорды и текст

Страница создана 01.01.2014
http://primanota.ru/misc-unsigned-bands/powerglove-tetris-theme-chords.htm
Привет, Гость.
Предлагаем пройти революционный курс по гитаре.
Подарок от PrimaNota.Ru, забирай!