PrimaNota.ru - самый крупный в мире бесплатный архив песенных текстов, аккордов, табулатур и нот


Misc Unsigned Bands - Projekt Ex - Forever Young - таба

Регистрация Запомнить меня
Войти через:  Facebook Google Twitter Vk Yandex Mail.ru

Misc Unsigned Bands - Projekt Ex - Forever Young - таба

Печатать
Просмотров: 43
Projekt Ex
Forever Young
Website at www.projektex/myspace.com
Tabbed By: Panda

    Intro:Panda
    ------------------------------------|
    ------------------------------------|
    -----5-----5-----4-----4-----4-4----|
    ------------------------------------|
    -3-3---3-3---3-3---3-3---3-3--------|
    ------------------------------------|
PM   . .   . .   . .   . .   . .
    Intro:Disaster
    -------------------------------------|
    -------------------------------------|
    -----5-----5------7-----7-----7-7----|
    -3-3---3-3----5-5---5-5---5-5--------|
    -------------------------------------|
    -------------------------------------|
PM   . .   . .    . .   . .   . .

Intro Part 2:Both Guitars
-------------------------------------|
-------------------------------------|
-55555555-44444444-55555555-77777777-|
-xxxxxxxx-xxxxxxxx-33333333-55555555-|
-33333333-33333333-------------------|
-------------------------------------|

Intro Part 3/Bridge Panda:Both Guitars
--------------|
--------------|
-5------------|
-5--5--7--3---|Wierd Strumming Pattern
-3--5--7--3---|
----3--5--1---|

Intro Part 4:Both Guitars
------------------------------------------|
------------------------------------------|
-55555555-77777777-99999999-77777777------|
-xxxxxxxx-xxxxxxxx-xxxxxxxx-xxxxxxxx------|
-33333333-55555555-77777777-55555555------|
------------------------------------------|

Verse:Disaster
---------------------------|
---------------------------|
---------------------------|
-5-------------------------|
-3-16x-5-----7-----5-------|
-------3-16x-5-16x-3-16x---|

Chorus Part 1:Panda
----------------------------|
----------------------------|
-5--------------------------|
-5-5-7-5--------------------|
-3-5-7-5--Wierd Strumming---|
---3-5-3----Pattern---------|

Chorus Part 1:Disaster
----------------------------|
----------------------------|
-5------55-77777777---------|
-5-5-7--xx-xxxxxxxx---------|
-3-5-7--33-55555555---------|
---3-5----------------------|

Chorus Part 2:Both Guitars
Same thing as Intro Part 3

Bridge: Disaster
---------------------------|
---------------------------|
-5---55555555-77777777-----|
-5-5-xxxxxxxx-xxxxxxxx-----|
-3-5-33333333-55555555-----|
---3-----------------------|

    Solo Part 1:Panda
    ----------------------------------|
    ----------------------------------|
    -----5-----5-----4----4----4-4----|
    ----------------------------------|
    -3-3---3-3---3-3---3-3--3-3-------|
    ----------------------------------|
PM   . .   . .   . .   . .  . .
    Solo Part 1:Disaster
    ----------------------------------|
    ----------------------------------|
    -----5-----5-----7----7-----7-7---|
    -3-3---3-3---5-5---5-5--5-5-------|
    ----------------------------------|
    ----------------------------------|
PM   . .   . .   . .   . .  . .
Solo Part 2:Panda
    -----------------------------------|
    -----------------------------------|
    -----9-----9-----7-----7-----7-7---|
    -7-7---7-7---5-5---5-5---5-5-------|
    -----------------------------------|
    -----------------------------------|
PM   . .   . .   . .   . .   . .

Solo Part 2:Disaster
    ---------------------------------------------|
    -----------------------------------------5~~-|
    -----9-----9-----4-----5-----4-----5---------|
    ---------------------------------------------|
    -7-7---7-7---3-3---3-3---3-3---3-3---3-3-----|
    ---------------------------------------------|
PM   . .   . .   . .   . .   . .   . .   . .
Song Order:

Intro Part 1 2x
Intro Part 2 2x
Intro Part 3 2x
Intro Part 4 1x
Intro Part 2 1x
Verse        2x
Chorus Part1 2x
Verse        2x
Chorus Part1 2x
Chorus Part2 2x
Intro Part 4 1x
Intro Part 2 1x
Solo         1x
Intro Part 2 1x
Intro Part 4 1x
Intro Part 2 1x
The End
Добавлено: 31.08.2013
Другие материалы по этой песне:
  • Аккорды и текст

Страница создана 31.08.2013
http://primanota.ru/misc-unsigned-bands/projekt-ex-forever-young-chords.htm
Привет, Гость.
Предлагаем пройти революционный курс по гитаре.
Подарок от PrimaNota.Ru, забирай!