PrimaNota.ru - самый крупный в мире бесплатный архив песенных текстов, аккордов, табулатур и нот


Misc Unsigned Bands - Project Mayhem - Filthy Party Monsters Invader Zim - таба

Регистрация Запомнить меня
Войти через:  Facebook Google Twitter Vk Yandex Mail.ru

Misc Unsigned Bands - Project Mayhem - Filthy Party Monsters Invader Zim - таба

Печатать
Просмотров: 55
INTRO -Tom Part
F-------------------------------------------|
A-------------------------------------------|
D-------------------------------------------|
C--55--------55--------33--------33---------|x3 total
G--55--------55--------33--------33---------|x1 w/o DRUMS
C--55--------55--------33--------33---------|x2 With DRUMS
   **        **        **        **         

intro w/ full band
F-------------------------------------------|
A-------------------------------------------|
D-----7875-----7875------57532/3---57532/3--|
C--55-----7/8-55----7/8-33--------33--------|x2
G--55---------55--------33--------33--------|
C--55---------55--------33--------33--------|
   **         **        **        **         
same just Heavier
F------------------------------------------|
A------------------------------------------|
D-----7875-----7875------57532/3---57532/3-|
C--55----7/8-55----7/8-33--------33--------|x2
G--55----7/8-55----7/8-33--------33--------|
C--55----7/8-55----7/8-33--------33--------|
   **        **        **        **         
INTERLUDE
F-----------------------------------------------------|
A-----------------------------------------------------|
D----0h2h3--32~---0h3h5--53~---0h5h7--75~-781087------|
C--00-----00----00-----00----00-----00----------108~~-|x3
G--00-----00----00-----00----00-----00----------------|
C--00-----00----00-----00----00-----00----------------|
   **     **    **     **    **     **
MINI-BREAK
F------------------------------------------------------------|
A------------------------------------------------------------|
D------------------------------------7h8p0-10p8p0-7h8p0------|x4
C--000---000---000---*---000---000---------------------10p8p0|
G--000---000---000---*---000---000---------------------------|
C--000---000---000---*---000---000---------------------------|
   ***   ***   ***   h   ***   ***
BRIDGE---Spaced out 
F---------------------------------------------------------------------------|
A--------------------[x4 sometimes more]------------------------------------|
D---------------------------------------------------------------------------|
C---5~~~(let ring)-----4~~~(let ring)-----2~~~(let ring)-----2~~~(let ring)-|
G---7~~~(let ring)-----5~~~(let ring)-----3~~~(let ring)-----0~~~(let ring)-|
C---------------------------------------------------------------------------|

BRIDGE Pt 2
F----7p0-7p0-7p0-7p0-7p0--5p0-5p0-5p0-5p0-5p0-5p0--|
A--------------------------------------------------|
D--------------------------------------------------|
C---5~~~-----------------4~~~----------------------|x1
G---7~~~-----------------5~~~----------------------|
C--------------------------------------------------|

F----3p0-3p0-3p0-3p0-3p0---2~~~0-h2h3h5~p3~p2~0~~~-|
A--------------------------------------------------|
D--------------------------------------------------|
C---2~~~-----------------2~~~----------------------|x1
G---3~~~-----------------0~~~----------------------|
C--------------------------------------------------|

CHORUS TYPE THING
F------------------------------------------------------------------|
A-----------------------------------3~-3~-3~-3~--------------------|
D------7777----7777---5-555---5-555-1~-1~-1~-1~----2--2-2-2-2h3p20-|
C--55555555555555553333333333333333-1~-1~-1~-1~--00-00-0-0-0-------|
G--55555555555555553333333333333333-1~-1~-1~-1~--00-00-0-0-0-------|
C--5555----5555----3333----33333333--------------00-00-0-0-0-------|
                                                 ** ** * * *
HEAVY CHORUS THING
F--------------------[x2 on this part]--------------------------------------|
A------------------------------------------------3~-3~-3~-3~--------------------|
D---------7b~~7-------7b~~7---5h0-5b~5--5h0-5b~5-1~-1~-1~-1~----2--2-2-2-2h3p20-|
C--5-55555-----5-55555------33---3----33---3-----1~-1~-1~-1~--00-00-0-0-0-------|
G--5-55555-----5-55555------33---3----33---3-----1~-1~-1~-1~--00-00-0-0-0-------|
C--5-55555-----5-55555------33---3----33---3------------------00-00-0-0-0-------|
     *****fast   *****fast  **   *    **   *                  ** ** * * *
POST CHORUS--head bob part
F----------------------------------------------------------------------|
A----------------------------------------------------------------------|
D----------------------------------------------------------------------|
C-555--555--555----333--333--333----111--111--111----000--000--000-----|x4
G-555--555--555----333--333--333----111--111--111----000--000--000-----|alternate 
C-555--555--555----333--333--333----111--111--111----000--000--000-12\0|ends 
  ***  ***  ***    ***  ***  ***    ***  ***  ***    ***  ***  *** 
after slide POST CHORUS cont.
F---3*--3*-3*---3*--3*-3*---3*--3*-3*-----------|
A---3*--3*-3*---3*--3*-3*---3*--3*-3*-----------|changes every time
D---3*--3*-3*---3*--3*-3*---3*--3*-3*-----------|1 x1
C-11--11--1---11--11--1---11--11--1------12421--|2 x2
G-11--11--1---11--11--1---11--11--1----12-----4-|3 x1
C-11--11--1---11--11--1---11--11--1-------------|4 x2
  **  **  *   **  **  *   **  **  * 
PRELUDE
F----------------------------------------------------------
A----------------------------------------------------------
D---------------------------------7*p----7*p----5*p----5*p-
C--55-7*p-55-7*p-33-5*p-33-5*p-55-----55-----33-----33-----
G--55-----55-----33-----33-----55-----55-----33-----33-----
C--55-----55-----33-----33-----55-----55-----33-----33-----
   **     **     **     **     **     **     **     **
POSTLUDE
F----------------------------------------------------
A----------------------------------------------------
D-----7-----7-----7875---------5-----5-----5753p2/3--
C--55--8-55--8-55----7/8----33--7-33--7-33-----------
G--55----55----55-----------33----33----33-----------
C--55----55----55-----------33----33----33-----------
   **    **    **           **    **    **
INTERLUDE
F-----------------------------------------------------|
A-----------------------------------------------------|
D----0h2h3--32~---0h3h5--53~---0h5h7--75~-781087------|
C--00-----00----00-----00----00-----00----------108~~-|x3
G--00-----00----00-----00----00-----00----------------|
C--00-----00----00-----00----00-----00----------------|
   **     **    **     **    **     **
MINI-BREAK
F------------------------------------------------------------|
A------------------------------------------------------------|
D------------------------------------7h8p0-10p8p0-7h8p0------|x4
C--000---000---000---*---000---000---------------------10p8p0|
G--000---000---000---*---000---000---------------------------|
C--000---000---000---*---000---000---------------------------|
   ***   ***   ***   h   ***   ***

BREAK DOWN SAME JUST SLOWER.
F----------------------------------------------16h20p16----------|
A---------------------------------------------17------17---------|
D--------------------------------------------18--------18--------|x4
C--000---000---000---*---000---000----------18----------18-------|
G--000---000---000---*---000---000---16h19p16------------16------|
C--000---000---000---*---000---000-------------------------------|
   ***   ***   ***   h   ***   ***

END
Добавлено: 28.08.2013
Другие материалы по этой песне:
  • Аккорды и текст

Страница создана 28.08.2013
http://primanota.ru/misc-unsigned-bands/project-mayhem-filthy-party-monsters-invader-zim-chords.htm
Привет, Гость.
Предлагаем пройти революционный курс по гитаре.
Подарок от PrimaNota.Ru, забирай!