PrimaNota.ru - самый крупный в мире бесплатный архив песенных текстов, аккордов, табулатур и нот


Misc Unsigned Bands - Powerglove - Mario Minor - таба, видео

Регистрация Запомнить меня
Войти через:  Facebook Google Twitter Vk Yandex Mail.ru

Misc Unsigned Bands - Powerglove - Mario Minor - таба, видео

Печатать
Просмотров: 61
Уроки эстрадного вокала в Санкт-Петербурге
                                  Mario Minor                                   


                                                                      Powerglove
Rhythm Guitar



             E  E  E  E  E  E  E  E     E  E  E  E  E  E  E  E   
E||-------|--------------------------|--------------------------|
B||-------|--------------------------|--------------------------|
G||-------|--------5--------5-----5--|--------------------------|
D||-------|--------5--------5-----5--|--------6--------6-----6--|
A||-------|--3--3--3--3--3--3--3--3--|--------6--------6-----6--|
E||-------|--------------------------|--4--4--4--4--4--4--4--4--|


                                                SH     
  E  E  E  E  E  E  E  E     E  E  Q    E  E    Q      
--------------------------|---------------------------|
--------------------------|---------------------------|
--------3--------3-----3--|-------------------<>3~----|
--------3--------3-----3--|--------5------------3-----|
--1--1--1--1--1--1--1--1--|--------5----1--1----1-----|
--------------------------|--3--3--3------------------|


  E  E  E  E  E  E  E  E     E  E  E  E  E  E  E  E   
--------------------------|--------------------------|
--------------------------|--------------------------|
--------5--------5-----5--|--------------------------|
--------5--------5-----5--|--------6--------6-----6--|
--3--3--3--3--3--3--3--3--|--------6--------6-----6--|
--------------------------|--4--4--4--4--4--4--4--4--|


  E  E  E  E  E  E  E  E     W                   W                 
--------------------------|-------------------|-------------------|
--------------------------|-------------------|-------------------|
--------3--------3-----3--|--4----------------|--5----------------|
--------3--------3-----3--|--4----------------|--5----------------|
--1--1--1--1--1--1--1--1--|--2----------------|--3----------------|
--------------------------|-------------------|-------------------|


                                                             SH     
  W                   W                   E  E  Q    E  E    Q      
-------------------|-------------------|---------------------------|
-------------------|-------------------|---------------------------|
-------------------|--3----------------|-------------------<>3~----|
--6----------------|--3----------------|--------5------------3-----|
--6----------------|--1----------------|--------5----1--1----1-----|
--4----------------|-------------------|--3--3--3------------------|


  W                   W                   W                 
-------------------|-------------------|-------------------|
-------------------|-------------------|-------------------|
--5----------------|-------------------|--3----------------|
--5----------------|--6----------------|--3----------------|
--3----------------|--6----------------|--1----------------|
-------------------|--4----------------|-------------------|


  E  E  Q    E  E  Q       E  E  E  E  E  E  E  E     E  E  E  E  E  E  E  E   
------------------------|--------------------------|--------------------------|
------------------------|--------------------------|--------------------------|
------------------------|--------5--------5-----5--|--------------------------|
--------5----------5----|--------5--------5-----5--|--------6--------6-----6--|
--------5----------5----|--3--3--3--3--3--3--3--3--|--------6--------6-----6--|
--3--3--3----3--3--3----|--------------------------|--4--4--4--4--4--4--4--4--|


                                                SH     
  E  E  E  E  E  E  E  E     E  E  Q    E  E    Q      
--------------------------|---------------------------|
--------------------------|---------------------------|
--------3--------3-----3--|-------------------<>3~----|
--------3--------3-----3--|--------5------------3-----|
--1--1--1--1--1--1--1--1--|--------5----1--1----1-----|
--------------------------|--3--3--3------------------|


  E  E  E  E  E  E  E  E     E  E  E  E  E  E  E  E   
--------------------------|--------------------------|
--------------------------|--------------------------|
--------5--------5-----5--|--------------------------|
--------5--------5-----5--|--------6--------6-----6--|
--3--3--3--3--3--3--3--3--|--------6--------6-----6--|
--------------------------|--4--4--4--4--4--4--4--4--|


        3        3        3                                            
  E  E  H        H        E     W                   H.           Q     
-----------------------------|-------------------|--------------------|
-----------------------------|-------------------|--------------------|
-----------------------------|-------------------|---------------3----|
--------6--------5--------3--|--L----------------|--6------------3----|
--------6--------5--------3--|--L----------------|--6------------1----|
--4--4--4--------3--------1--|--L----------------|--4-----------------|


  Q    E  E  E  E  E  E     H.           Q       W                 
-------------------------|--------------------|-------------------|
-------------------------|--------------------|-------------------|
--5----------------------|---------------3----|--5----------------|
--5----------------------|--6------------3----|--5----------------|
--3----3--3--3--3--3--3--|--6------------1----|--3----------------|
-------------------------|--4-----------------|-------------------|


  H.           Q       Q    E  E  E  E  E  E     Q    E  E  Q    E  E   
--------------------|-------------------------|------------------------|
--------------------|-------------------------|------------------------|
---------------3----|--5----------------------|-------------3----------|
--6------------3----|--5----------------------|--6----------3----------|
--6------------1----|--3----3--3--3--3--3--3--|--6----------1----1--1--|
--4-----------------|-------------------------|--4----4--4-------------|


                         PM PM PM PM PM PM PM       PM PM PM PM PM PM PM  
  W                   E  E  E  E  E  E  E  E     E  E  E  E  E  E  E  E   
-------------------|--------------------------|--------------------------|
-------------------|--------------------------|--------------------------|
-------------------|--------------------------|--5-----------------------|
--5----------------|--6-----------------3--3--|--5--5--5--5--5--5--3--3--|
--5----------------|--6--6--6--6--6--6--1--1--|--3--3--3--3--3--3--1--1--|
--3----------------|--4--4--4--4--4--4--------|--------------------------|


     PM PM PM PM PM PM PM                           PM PM PM PM PM PM PM  
  E  E  E  E  E  E  E  E     W                   E  E  E  E  E  E  E  E   
--------------------------|-------------------|--------------------------|
--------------------------|-------------------|--------------------------|
--------------------------|--5----------------|--------------------------|
--6-----------------3--3--|--5----------------|--6-----------------3--3--|
--6--6--6--6--6--6--1--1--|--3----------------|--6--6--6--6--6--6--1--1--|
--4--4--4--4--4--4--------|-------------------|--4--4--4--4--4--4--------|


     PM PM PM PM PM PM PM                                               
  E  E  E  E  E  E  E  E     Q    E  E  Q    E  E     W                 
--------------------------|------------------------|-------------------|
--------------------------|------------------------|-------------------|
--5-----------------------|-------------3----------|-------------------|
--5--5--5--5--5--5--3--3--|--6----------3----------|--5----------------|
--3--3--3--3--3--3--1--1--|--6----------1----1--1--|--5----------------|
--------------------------|--4----4--4-------------|--3----------------|


  W                   W                   W                 
-------------------|-------------------|-------------------|
-------------------|-------------------|-------------------|
--5----------------|-------------------|--3----------------|
--5----------------|--6----------------|--3----------------|
--3----------------|--6----------------|--1----------------|
-------------------|--4----------------|-------------------|


                     SH                                             
  E  E  Q    E  E    Q        W                   W                 
---------------------------|-------------------|-------------------|
---------------------------|-------------------|-------------------|
-------------------<>3~----|--5----------------|-------------------|
--------5------------3-----|--5----------------|--6----------------|
--------5----1--1----1-----|--3----------------|--6----------------|
--3--3--3------------------|-------------------|--4----------------|


  W                   E  E  Q    E  E  Q       W                 
-------------------|------------------------|-------------------|
-------------------|------------------------|-------------------|
--3----------------|------------------------|--5----------------|
--3----------------|--------5----------5----|--5----------------|
--1----------------|--------5----------5----|--3----------------|
-------------------|--3--3--3----3--3--3----|-------------------|


                                                             SH     
  W                   W                   E  E  Q    E  E    Q      
-------------------|-------------------|---------------------------|
-------------------|-------------------|---------------------------|
-------------------|--3----------------|-------------------<>3~----|
--6----------------|--3----------------|--------5------------3-----|
--6----------------|--1----------------|--------5----1--1----1-----|
--4----------------|-------------------|--3--3--3------------------|


  W                   W                   W                   W                 
-------------------|-------------------|-------------------|-------------------|
-------------------|-------------------|-------------------|-------------------|
--5----------------|-------------------|--3----------------|--4----------------|
--5----------------|--6----------------|--3----------------|--4----------------|
--3----------------|--6----------------|--1----------------|--2----------------|
-------------------|--4----------------|-------------------|-------------------|


  W                   W                   W                 
-------------------|-------------------|-------------------|
-------------------|-------------------|-------------------|
--5----------------|-------------------|--3----------------|
--5----------------|--6----------------|--3----------------|
--3----------------|--6----------------|--1----------------|
-------------------|--4----------------|-------------------|


                     SH                                             
  E  E  Q    E  E    Q        W                   W                 
---------------------------|-------------------|-------------------|
---------------------------|-------------------|-------------------|
-------------------<>3~----|--5----------------|-------------------|
--------5------------3-----|--5----------------|--6----------------|
--------5----1--1----1-----|--3----------------|--6----------------|
--3--3--3------------------|-------------------|--4----------------|


  W                   E  E  Q    E  E  Q       E  E  E  E  E  E  E  E   
-------------------|------------------------|--------------------------|
-------------------|------------------------|--------------------------|
--3----------------|------------------------|--------5--------5-----5--|
--3----------------|--------5----------5----|--------5--------5-----5--|
--1----------------|--------5----------5----|--3--3--3--3--3--3--3--3--|
-------------------|--3--3--3----3--3--3----|--------------------------|


  E  E  E  E  E  E  E  E     E  E  E  E  E  E  E  E   
--------------------------|--------------------------|
--------------------------|--------------------------|
--------------------------|--------3--------3-----3--|
--------6--------6-----6--|--------3--------3-----3--|
--------6--------6-----6--|--1--1--1--1--1--1--1--1--|
--4--4--4--4--4--4--4--4--|--------------------------|


                     SH                                
  E  E  Q    E  E    Q        E  E  E  E  E  E  E  E   
---------------------------|--------------------------|
---------------------------|--------------------------|
-------------------<>3~----|--------5--------5-----5--|
--------5------------3-----|--------5--------5-----5--|
--------5----1--1----1-----|--3--3--3--3--3--3--3--3--|
--3--3--3------------------|--------------------------|


                                   3        3        3                       
  E  E  E  E  E  E  E  E     E  E  H        H        E     W                 
--------------------------|-----------------------------|-------------------|
--------------------------|-----------------------------|-------------------|
--------------------------|-----------------------------|-------------------|
--------6--------6-----6--|--------6--------5--------3--|--L----------------|
--------6--------6-----6--|--------6--------5--------3--|--L----------------|
--4--4--4--4--4--4--4--4--|--4--4--4--------3--------1--|--L----------------|


  H.           Q       Q    E  E  E  E  E  E     H.           Q     
--------------------|-------------------------|--------------------|
--------------------|-------------------------|--------------------|
---------------3----|--5----------------------|---------------3----|
--6------------3----|--5----------------------|--6------------3----|
--6------------1----|--3----3--3--3--3--3--3--|--6------------1----|
--4-----------------|-------------------------|--4-----------------|


  W                   H.           Q       Q    E  E  E  E  E  E   
-------------------|--------------------|-------------------------|
-------------------|--------------------|-------------------------|
--5----------------|---------------3----|--5----------------------|
--5----------------|--6------------3----|--5----------------------|
--3----------------|--6------------1----|--3----3--3--3--3--3--3--|
-------------------|--4-----------------|-------------------------|


                                                  PM PM PM PM PM PM PM  
  Q    E  E  Q    E  E     W                   E  E  E  E  E  E  E  E   
------------------------|-------------------|--------------------------|
------------------------|-------------------|--------------------------|
-------------3----------|-------------------|--------------------------|
--6----------3----------|--5----------------|--6-----------------3--3--|
--6----------1----1--1--|--5----------------|--6--6--6--6--6--6--1--1--|
--4----4--4-------------|--3----------------|--4--4--4--4--4--4--------|


     PM PM PM PM PM PM PM       PM PM PM PM PM PM PM                      
  E  E  E  E  E  E  E  E     E  E  E  E  E  E  E  E     W                 
--------------------------|--------------------------|-------------------|
--------------------------|--------------------------|-------------------|
--5-----------------------|--------------------------|--5----------------|
--5--5--5--5--5--5--3--3--|--6-----------------3--3--|--5----------------|
--3--3--3--3--3--3--1--1--|--6--6--6--6--6--6--1--1--|--3----------------|
--------------------------|--4--4--4--4--4--4--------|-------------------|


     PM PM PM PM PM PM PM       PM PM PM PM PM PM PM                           
  E  E  E  E  E  E  E  E     E  E  E  E  E  E  E  E     Q    E  E  Q    E  E   
--------------------------|--------------------------|------------------------|
--------------------------|--------------------------|------------------------|
--------------------------|--5-----------------------|-------------3----------|
--6-----------------3--3--|--5--5--5--5--5--5--3--3--|--6----------3----------|
--6--6--6--6--6--6--1--1--|--3--3--3--3--3--3--1--1--|--6----------1----1--1--|
--4--4--4--4--4--4--------|--------------------------|--4----4--4-------------|


  W                                                                             
-------------------|-------------------|-------------------|-------------------|
-------------------|-------------------|-------------------|-------------------|
-------------------|-------------------|-------------------|-------------------|
--5----------------|-------------------|-------------------|-------------------|
--5----------------|-------------------|-------------------|-------------------|
--3----------------|-------------------|-------------------|-------------------|


-------------------|-------------------|-------------------|-------------------|
-------------------|-------------------|-------------------|-------------------|
-------------------|-------------------|-------------------|-------------------|
-------------------|-------------------|-------------------|-------------------|
-------------------|-------------------|-------------------|-------------------|
-------------------|-------------------|-------------------|-------------------|


                      E  E  E  E  E  E  E  E     E  E  E  E  E  E  E  E   
-------------------|--------------------------|--------------------------|
-------------------|--------------------------|--------------------------|
-------------------|--------5--------5-----5--|--------------------------|
-------------------|--------5--------5-----5--|--------6--------6-----6--|
-------------------|--3--3--3--3--3--3--3--3--|--------6--------6-----6--|
-------------------|--------------------------|--4--4--4--4--4--4--4--4--|


                                                SH     
  E  E  E  E  E  E  E  E     E  E  Q    E  E    Q      
--------------------------|---------------------------|
--------------------------|---------------------------|
--------3--------3-----3--|-------------------<>3~----|
--------3--------3-----3--|--------5------------3-----|
--1--1--1--1--1--1--1--1--|--------5----1--1----1-----|
--------------------------|--3--3--3------------------|


  E  E  E  E  E  E  E  E     E  E  E  E  E  E  E  E   
--------------------------|--------------------------|
--------------------------|--------------------------|
--------5--------5-----5--|--------------------------|
--------5--------5-----5--|--------6--------6-----6--|
--3--3--3--3--3--3--3--3--|--------6--------6-----6--|
--------------------------|--4--4--4--4--4--4--4--4--|


                                                             PM PM PM  
  E  E  E  E  E  E  E  E     W                   H        E  E  E  E   
--------------------------|-------------------|-----------------------|
--------------------------|-------------------|-----------------------|
--------3--------3-----3--|--4----------------|--5--------L-----------|
--------3--------3-----3--|--4----------------|--5--------L--5--5--5--|
--1--1--1--1--1--1--1--1--|--2----------------|--3--------L--3--3--3--|
--------------------------|-------------------|-----------------------|


              PM PM PM                PM PM PM                      
  H        E  E  E  E     H        E  E  E  E     W                 
-----------------------|-----------------------|-------------------|
-----------------------|-----------------------|-------------------|
-----------------------|-----------------------|-------------------|
--6--------L-----------|--3--------L-----------|--5----------------|
--6--------L--6--6--6--|--3--------L--3--3--3--|--5----------------|
--4--------L--4--4--4--|--1--------L--1--1--1--|--3----------------|


              PM PM PM                PM PM PM                PM PM PM  
  H        E  E  E  E     H        E  E  E  E     H        E  E  E  E   
-----------------------|-----------------------|-----------------------|
-----------------------|-----------------------|-----------------------|
--5--------L-----------|-----------------------|-----------------------|
--5--------L--5--5--5--|--6--------L-----------|--3--------L-----------|
--3--------L--3--3--3--|--6--------L--6--6--6--|--3--------L--3--3--3--|
-----------------------|--4--------L--4--4--4--|--1--------L--1--1--1--|


                                  PM PM PM                PM PM PM  
  W                   H        E  E  E  E     H        E  E  E  E   
-------------------|-----------------------|-----------------------|
-------------------|-----------------------|-----------------------|
-------------------|--5--------L-----------|-----------------------|
--5----------------|--5--------L--5--5--5--|--6--------L-----------|
--5----------------|--3--------L--3--3--3--|--6--------L--6--6--6--|
--3----------------|-----------------------|--4--------L--4--4--4--|


              PM PM PM                                    PM PM PM  
  H        E  E  E  E     W                   H        E  E  E  E   
-----------------------|-------------------|-----------------------|
-----------------------|-------------------|-----------------------|
-----------------------|-------------------|--5--------L-----------|
--3--------L-----------|--5----------------|--5--------L--5--5--5--|
--3--------L--3--3--3--|--5----------------|--3--------L--3--3--3--|
--1--------L--1--1--1--|--3----------------|-----------------------|


              PM PM PM                PM PM PM                      
  H        E  E  E  E     H        E  E  E  E     W                 
-----------------------|-----------------------|-------------------|
-----------------------|-----------------------|-------------------|
-----------------------|-----------------------|-------------------|
--6--------L-----------|--3--------L-----------|--5----------------|
--6--------L--6--6--6--|--3--------L--3--3--3--|--5----------------|
--4--------L--4--4--4--|--1--------L--1--1--1--|--3----------------|


-------------------|-------------------|-------------------|-------------------|
-------------------|-------------------|-------------------|-------------------|
-------------------|-------------------|-------------------|-------------------|
-------------------|-------------------|-------------------|-------------------|
-------------------|-------------------|-------------------|-------------------|
-------------------|-------------------|-------------------|-------------------|


-------------------|-------------------|-------------------|-------------------|
-------------------|-------------------|-------------------|-------------------|
-------------------|-------------------|-------------------|-------------------|
-------------------|-------------------|-------------------|-------------------|
-------------------|-------------------|-------------------|-------------------|
-------------------|-------------------|-------------------|-------------------|


-------------------|-------------------|-------------------|-------------------|
-------------------|-------------------|-------------------|-------------------|
-------------------|-------------------|-------------------|-------------------|
-------------------|-------------------|-------------------|-------------------|
-------------------|-------------------|-------------------|-------------------|
-------------------|-------------------|-------------------|-------------------|


-------------------|-------------------|-------------------|-------------------|
-------------------|-------------------|-------------------|-------------------|
-------------------|-------------------|-------------------|-------------------|
-------------------|-------------------|-------------------|-------------------|
-------------------|-------------------|-------------------|-------------------|
-------------------|-------------------|-------------------|-------------------|


              PM PM PM                PM PM PM                PM PM PM  
  H        E  E  E  E     H        E  E  E  E     H        E  E  E  E   
-----------------------|-----------------------|-----------------------|
-----------------------|-----------------------|-----------------------|
--5--------L-----------|-----------------------|-----------------------|
--5--------L--5--5--5--|--6--------L-----------|--3--------L-----------|
--3--------L--3--3--3--|--6--------L--6--6--6--|--3--------L--3--3--3--|
-----------------------|--4--------L--4--4--4--|--1--------L--1--1--1--|


                                  PM PM PM                PM PM PM  
  W                   H        E  E  E  E     H        E  E  E  E   
-------------------|-----------------------|-----------------------|
-------------------|-----------------------|-----------------------|
-------------------|--5--------L-----------|-----------------------|
--5----------------|--5--------L--5--5--5--|--6--------L-----------|
--5----------------|--3--------L--3--3--3--|--6--------L--6--6--6--|
--3----------------|-----------------------|--4--------L--4--4--4--|


              PM PM PM                                                         
  H        E  E  E  E     W                   S S S S S S S S S S S S S S S S  
-----------------------|-------------------|----------------------------------|
-----------------------|-------------------|----------------------------------|
-----------------------|-------------------|----------------------------------|
--3--------L-----------|--5----------------|----------------------------------|
--3--------L--3--3--3--|--5----------------|--3-3-3-3-3-3-3-3-3-3-3-3-3-3-3-3-|
--1--------L--1--1--1--|--3----------------|----------------------------------|


  S S S S S S S S S S S S S S S S    S S S S S S S S S S S S S S S S  
----------------------------------|----------------------------------|
----------------------------------|----------------------------------|
----------------------------------|----------------------------------|
----------------------------------|----------------------------------|
--8-8-8-8-8-8-8-8-8-8-8-8-8-8-8-8-|--1-1-1-1-1-1-1-1-1-1-1-1-1-1-1-1-|
----------------------------------|----------------------------------|


  S S S S S S S S S S S S S S S S    S S S S S S S S S S S S S S S S  
----------------------------------|----------------------------------|
----------------------------------|----------------------------------|
----------------------------------|----------------------------------|
----------------------------------|----------------------------------|
--6-6-6-6-6-6-6-6-6-6-6-6-6-6-6-6-|--3-3-3-3-3-3-3-3-3-3-3-3-3-3-3-3-|
----------------------------------|----------------------------------|


  S S S S S S S S S S S S S S S S    S S S S S S S S S S S S S S S S  
----------------------------------|----------------------------------|
----------------------------------|----------------------------------|
----------------------------------|----------------------------------|
----------------------------------|----------------------------------|
--4-4-4-4-4-4-4-4-4-4-4-4-4-4-4-4-|--1-1-1-1-1-1-1-1-1-1-1-1-1-1-1-1-|
----------------------------------|----------------------------------|


  S S S S S S S S S S S S S S S S    S S S S S S S S S S S S S S S S  
----------------------------------|----------------------------------|
----------------------------------|----------------------------------|
----------------------------------|----------------------------------|
----------------------------------|----------------------------------|
--2-2-2-2-2-2-2-2-2-2-2-2-2-2-2-2-|--3-3-3-3-3-3-3-3-3-3-3-3-3-3-3-3-|
----------------------------------|----------------------------------|


  S S S S S S S S S S S S S S S S    S S S S S S S S S S S S S S S S  
----------------------------------|----------------------------------|
----------------------------------|----------------------------------|
----------------------------------|----------------------------------|
----------------------------------|----------------------------------|
--8-8-8-8-8-8-8-8-8-8-8-8-8-8-8-8-|--1-1-1-1-1-1-1-1-1-1-1-1-1-1-1-1-|
----------------------------------|----------------------------------|


  S S S S S S S S S S S S S S S S    S S S S S S S S S S S S S S S S  
----------------------------------|----------------------------------|
----------------------------------|----------------------------------|
----------------------------------|----------------------------------|
----------------------------------|----------------------------------|
--6-6-6-6-6-6-6-6-6-6-6-6-6-6-6-6-|--3-3-3-3-3-3-3-3-3-3-3-3-3-3-3-3-|
----------------------------------|----------------------------------|


  S S S S S S S S S S S S S S S S    S S S S S S S S S S S S S S S S  
----------------------------------|----------------------------------|
----------------------------------|----------------------------------|
----------------------------------|----------------------------------|
----------------------------------|----------------------------------|
--4-4-4-4-4-4-4-4-4-4-4-4-4-4-4-4-|--1-1-1-1-1-1-1-1-1-1-1-1-1-1-1-1-|
----------------------------------|----------------------------------|


  S S S S S S S S S S S S S S S S                                          
----------------------------------|-------------------|-------------------|
----------------------------------|-------------------|-------------------|
----------------------------------|-------------------|-------------------|
----------------------------------|-------------------|-------------------|
--2-2-2-2-2-2-2-2-2-2-2-2-2-2-2-2-|-------------------|-------------------|
----------------------------------|-------------------|-------------------|


  H.           Q       Q    E  E  E  E  E  E     H.           Q     
--------------------|-------------------------|--------------------|
--------------------|-------------------------|--------------------|
---------------3----|--5----------------------|---------------3----|
--6------------3----|--5----------------------|--6------------3----|
--6------------1----|--3----3--3--3--3--3--3--|--6------------1----|
--4-----------------|-------------------------|--4-----------------|


  W                   H.           Q       Q    E  E  E  E  E  E   
-------------------|--------------------|-------------------------|
-------------------|--------------------|-------------------------|
--5----------------|---------------3----|--5----------------------|
--5----------------|--6------------3----|--5----------------------|
--3----------------|--6------------1----|--3----3--3--3--3--3--3--|
-------------------|--4-----------------|-------------------------|


                                                  PM PM PM PM PM PM PM  
  Q    E  E  Q    E  E     W                   E  E  E  E  E  E  E  E   
------------------------|-------------------|--------------------------|
------------------------|-------------------|--------------------------|
-------------3----------|-------------------|--------------------------|
--6----------3----------|--5----------------|--6-----------------3--3--|
--6----------1----1--1--|--5----------------|--6--6--6--6--6--6--1--1--|
--4----4--4-------------|--3----------------|--4--4--4--4--4--4--------|


     PM PM PM PM PM PM PM       PM PM PM PM PM PM PM                      
  E  E  E  E  E  E  E  E     E  E  E  E  E  E  E  E     W                 
--------------------------|--------------------------|-------------------|
--------------------------|--------------------------|-------------------|
--5-----------------------|--------------------------|--5----------------|
--5--5--5--5--5--5--3--3--|--6-----------------3--3--|--5----------------|
--3--3--3--3--3--3--1--1--|--6--6--6--6--6--6--1--1--|--3----------------|
--------------------------|--4--4--4--4--4--4--------|-------------------|


     PM PM PM PM PM PM PM       PM PM PM PM PM PM PM                           
  E  E  E  E  E  E  E  E     E  E  E  E  E  E  E  E     Q    E  E  Q    E  E   
--------------------------|--------------------------|------------------------|
--------------------------|--------------------------|------------------------|
--------------------------|--5-----------------------|-------------3----------|
--6-----------------3--3--|--5--5--5--5--5--5--3--3--|--6----------3----------|
--6--6--6--6--6--6--1--1--|--3--3--3--3--3--3--1--1--|--6----------1----1--1--|
--4--4--4--4--4--4--------|--------------------------|--4----4--4-------------|


  W                   W                   W                 
-------------------|-------------------|-------------------|
-------------------|-------------------|-------------------|
-------------------|--3----------------|--7----------------|
--5----------------|--3----------------|--7----------------|
--5----------------|--1----------------|--5----------------|
--3----------------|-------------------|-------------------|


  E  E  E  E  E  E  E  E     E  E  E  E  Q    Q                         
--------------------------|------------------------|-------------------|
--------------------------|------------------------|-------------------|
--5--------5-----5-----5--|-----3--------5---------|-------------------|
--5--------5-----5-----5--|-----3--------5---------|-------------------|
--3--3--3--3--3--3--3--3--|--3--1--1--1--3---------|-------------------|
--------------------------|------------------------|-------------------|


-------------------|-------------------|-------------------||
-------------------|-------------------|-------------------||
-------------------|-------------------|-------------------||
-------------------|-------------------|-------------------||
-------------------|-------------------|-------------------||
-------------------|-------------------|-------------------||




Duration Legend
---------------
W - whole
H - half
Q - quarter
E - 8th
S - 16th
T - 32nd
X - 64th
. - note dotted
|-n-|  - n-tuplets


Tablature Legend
----------------
L - tied note
x - dead note
g - grace note
(n) - ghost note
> - accentuded note
NH - natural harmonic
AH - artificial harmonic
TH - tapped harmonic
SH - semi harmonic
PH - pitch harmonic
h - hammer on
p - pull off
b - bend
br - bendRelease
pb - preBend
pbr - preBendRelease
brb - bendReleaseBend
\n/ - tremolo bar dip
\n - tremolo bar dive
-/n - tremolo bar Release up
/n\ - tremolo bar inverted dip
/n - tremolo bar return
-\n - tremolo bar Release down
S - shift slide
s - legato slide
/ -  slide into from below or out of upwards
\ -  slide into from above or out of downwards
~ - vibrato
W - wide vibrato
tr - trill
TP - tremolo picking
T - tapping
S - slap
P - pop
< - fade in
^ - brush up
v - brush down

LEAD GUITAR

                                  Mario Minor                                   


                                                                      Powerglove
Lead Guitar



E||-------|-------|-------|-------|-------|-------|-------|-------|-------|
B||-------|-------|-------|-------|-------|-------|-------|-------|-------|
G||-------|-------|-------|-------|-------|-------|-------|-------|-------|
D||-------|-------|-------|-------|-------|-------|-------|-------|-------|
A||-------|-------|-------|-------|-------|-------|-------|-------|-------|
E||-------|-------|-------|-------|-------|-------|-------|-------|-------|


   |----------3----------|                                        
   H          H          H             E   Q      Q     E   Q     
-----------------------------------|-----------------------------|
--13~------------------------------|-----------------------------|
-------------12~-------------------|-----------------------------|
------------------------13~--------|---L--17s----20----18--17----|
-----------------------------------|-----------------------------|
-----------------------------------|-----------------------------|


   E   Q     E   Q     E   E      E   Q     E    E   Q.      
------------------------------|-----------------------------|
------------------------------|-----------------------------|
------------------------------|-----------------------------|
--17--15----17--18----17--18--|---L--13----10s--13----------|
------------------------------|---------------------13------|
------------------------------|-----------------------------|


   |----------3----------|                                        
   H          H          H             E   Q      Q     E   Q     
-----------------------------------|-----------------------------|
--13~------------------------------|-----------------------------|
-------------12~-------------------|-----------------------------|
------------------------13~--------|---L--17s----20----18--17----|
-----------------------------------|-----------------------------|
-----------------------------------|-----------------------------|


   E   Q     E   Q     E   E      E   Q      Q.      E  E   
------------------------------|----------------------------|
------------------------------|------13s----15~---------3--|
------------------------------|----------------------3-----|
--17--15----17--18----17--18--|---L------------------------|
------------------------------|----------------------------|
------------------------------|----------------------------|


  E  E  E  Q    Q    E      E  E  E  Q    E  E  E      E  E  E  E   E  Q    E   
------------------------|--------------------------|-------------------8----6--|
--4--3--1--3----1----3--|---L--4--3--4----4--6--8--|---L--6--4--6---L----------|
------------------------|--------------------------|---------------------------|
------------------------|--------------------------|---------------------------|
------------------------|--------------------------|---------------------------|
------------------------|--------------------------|---------------------------|


  E  E  E  H        E     Q    E   E  E  Q     E     E  E  Q    E  E  E  E   
--8--7--6--8--------L--|----------------------11--|--L----------------------|
-----------------------|--8----8--11--8--4--------|-----8--6----4--6--8--6--|
-----------------------|--------------------------|-------------------------|
-----------------------|--------------------------|-------------------------|
-----------------------|--------------------------|-------------------------|
-----------------------|--------------------------|-------------------------|


                              SH                                              
  E  E   Q.      Q.           W                     E   Q     Q     E   Q     
------------------------|-----------------------|----------------------------|
------------------------|-----------------------|--13--13----13----13--15----|
--5--7--/8------/7------|--/<>5~----------------|----------------------------|
------------------------|-----------------------|----------------------------|
------------------------|-----------------------|----------------------------|
------------------------|-----------------------|----------------------------|


   E   E   E   E   H            E   Q     Q     E   Q     
----------------------------|----------------------------|
--16--15--13----------------|--13--13----13----13--15----|
--------------15--12--------|----------------------------|
----------------------------|----------------------------|
----------------------------|----------------------------|
----------------------------|----------------------------|


    Q      Q      Q      Q        E   Q     Q     E   Q     
------------------------------|----------------------------|
--/16----/18----/19----/20----|--13--13----13----13--15----|
------------------------------|----------------------------|
------------------------------|----------------------------|
------------------------------|----------------------------|
------------------------------|----------------------------|


   E   E   E   E   H            E   Q     Q     E   Q        W                  
----------------------------|----------------------------|---------------------|
--16--15--13----------------|--16--16----16----15--16----|--20~----------------|
--------------15--12--------|----------------------------|---------------------|
----------------------------|----------------------------|---------------------|
----------------------------|----------------------------|---------------------|
----------------------------|----------------------------|---------------------|


                                |-----3-----|               
   E   Q     Q     E   Q        Q     Q     Q     H         
----------------------------|------------------------------|
--16--16----16----16--18----|--20----18----16--------------|
----------------------------|--------------------17--------|
----------------------------|------------------------------|
----------------------------|------------------------------|
----------------------------|------------------------------|


   E   Q     Q     E   Q        W                     E   Q     Q     E   Q     
----------------------------|---------------------|----------------------------|
--16--16----16----16--18----|--20~----------------|--16--16----16----16--18----|
----------------------------|---------------------|----------------------------|
----------------------------|---------------------|----------------------------|
----------------------------|---------------------|----------------------------|
----------------------------|---------------------|----------------------------|


   |-----3-----|                                            
   Q     Q     Q     H            E   Q     Q     E   Q     
------------------------------|--16--16----16--------16----|
--20----18----16--------------|------------------18--------|
--------------------17--------|----------------------------|
------------------------------|----------------------------|
------------------------------|----------------------------|
------------------------------|----------------------------|


   E   E   E   E   E   E   E   E     Q     Q     Q     E   E   
----------------------------------|---------------------------|
--20--18--16--15--18--16--15--13--|-------16----13----16--20--|
----------------------------------|---------------------------|
----------------------------------|---------------------------|
----------------------------------|---------------------------|
----------------------------------|---------------------------|


   E   E   E   E   H            E   E   E   Q     E   E   E   
----------------------------|--------------------------------|
---L--18--16--15--13--------|--11--13--11--16----11--13--20--|
----------------------------|--------------------------------|
----------------------------|--------------------------------|
----------------------------|--------------------------------|
----------------------------|--------------------------------|


  E   E   E   H        E      E   E   E   E   E   E   E   E   
--------------------------|----------------------------------|
--L--18--16--13--------L--|--11--11--13--11--11--16--11--11--|
--------------------------|----------------------------------|
--------------------------|----------------------------------|
--------------------------|----------------------------------|
--------------------------|----------------------------------|


   E   E   E   E   E   E   E   E   
----------------------------------|
--13--11--11--16--11--11--13--11--|
----------------------------------|
----------------------------------|
----------------------------------|
----------------------------------|


   |---3---|   |---3---|   |---3---|   |---3---|   
   E   E   E   E   E   E   E   E   E   E   E   E   
--------------------------------------------------|
--13--15--16--15--16--18--15--16--18--16--18--20--|
--------------------------------------------------|
--------------------------------------------------|
--------------------------------------------------|
--------------------------------------------------|


   |---3---|   |---3---|              
   E   E   E   E   E   E   H          
--------------15--16--18--18b--------|
--16--18--20-------------------------|
-------------------------------------|
-------------------------------------|
-------------------------------------|
-------------------------------------|


   |--3--|  |--3--|  |--3--|  |--3--|  |--3--|  |--3--|  |--3--|  |--3--|  
   S  S  S  S  S  S  S  S  S  S  S  S  S  S  S  S  S  S  S  S  S  S  S  S  
--20-18-16-20-18-16-------------------20-18-16-20-18-16-------------------|
--------------------20-18-16-20-18-16-------------------20-18-16-20-18-16-|
--------------------------------------------------------------------------|
--------------------------------------------------------------------------|
--------------------------------------------------------------------------|
--------------------------------------------------------------------------|


   |--3--|  |--3--|  |--3--|  |--3--|  |--3--|  |--3--|  |--3--|  |--3--|  
   S  S  S  S  S  S  S  S  S  S  S  S  S  S  S  S  S  S  S  S  S  S  S  S  
--18-16-15-18-16-15-------------------18-16-15-18-16-15-------------------|
--------------------18-16-15-18-16-15-------------------18-16-15-18-16-15-|
--------------------------------------------------------------------------|
--------------------------------------------------------------------------|
--------------------------------------------------------------------------|
--------------------------------------------------------------------------|


   |--3--|  |--3--|  |--3--|  |--3--|  |--3--|  |--3--|  |--3--|  |--3--|  
   S  S  S  S  S  S  S  S  S  S  S  S  S  S  S  S  S  S  S  S  S  S  S  S  
--16-15-13-16-15-13-------------------16-15-13-16-15-13-------------------|
--------------------16-15-13-16-15-13-------------------16-15-13-16-15-13-|
--------------------------------------------------------------------------|
--------------------------------------------------------------------------|
--------------------------------------------------------------------------|
--------------------------------------------------------------------------|


   |--3--|  |--3--|  |--3--|  |--3--|                                       
   S  S  S  S  S  S  S  S  S  S  S  S  H            Q     Q     Q     Q     
--15-13-11-15-13-11-----------------------------|--------------------------|
--------------------15-13-11-15-13-11-16--------|--13----16----15----16----|
------------------------------------------------|--------------------------|
------------------------------------------------|--------------------------|
------------------------------------------------|--------------------------|
------------------------------------------------|--------------------------|


   Q     E   H        E      S  S  S  S  S  S  S  S  S  S  S  S  S  S  S  S  
-------------------------|--------------------------------------------------|
--20----18--16--------L--|--18-16-15-13-15-16-18-16-15-13-15-16-18-16-15-13-|
-------------------------|--------------------------------------------------|
-------------------------|--------------------------------------------------|
-------------------------|--------------------------------------------------|
-------------------------|--------------------------------------------------|


                                         |----------3----------|          
   S  S  S  S  S  S  S  S  H             H          H          H          
--------------------------20~--------|-----------------------------------|
--18-16-15-13-15-16-18-16------------|--13~------------------------------|
-------------------------------------|-------------12~-------------------|
-------------------------------------|------------------------13~--------|
-------------------------------------|-----------------------------------|
-------------------------------------|-----------------------------------|


   E   Q      Q     E   Q        E   Q     E   Q     E   E   
-----------------------------|------------------------------|
-----------------------------|------------------------------|
-----------------------------|------------------------------|
---L--17s----20----18--17----|--17--15----17--18----17--18--|
-----------------------------|------------------------------|
-----------------------------|------------------------------|


                                 |----------3----------|          
   E   Q     E    E   Q.         H          H          H          
-----------------------------|-----------------------------------|
-----------------------------|--13~------------------------------|
-----------------------------|-------------12~-------------------|
---L--13----10s--13----------|------------------------13~--------|
---------------------13------|-----------------------------------|
-----------------------------|-----------------------------------|


   E   Q      Q     E   Q        E   Q     E   Q     E   E   
-----------------------------|------------------------------|
-----------------------------|------------------------------|
-----------------------------|------------------------------|
---L--17s----20----18--17----|--17--15----17--18----17--18--|
-----------------------------|------------------------------|
-----------------------------|------------------------------|


   E   Q      H         E     Q.     E  E  E  E  E     E   E  E  Q    E  E  E   
---------------------------|------------------------|--------------------------|
------13s----15~--------L--|--8------6--4--3--4--8--|--L--11--8--6----6--4--3--|
---------------------------|------------------------|--------------------------|
---L-----------------------|------------------------|--------------------------|
---------------------------|------------------------|--------------------------|
---------------------------|------------------------|--------------------------|


                                         SH           
  E  E  E  E  E   E  E  E     E  E  E    H        E   
---------------------------|-------------------------|
--L--6-----8--9--11--8--6--|--L--8--9--<>6--------L--|
--------8------------------|-------------------------|
---------------------------|-------------------------|
---------------------------|-------------------------|
---------------------------|-------------------------|


   E  E  E  Q    E  E   E      E  E  E  H        E     Q    Q.     Q.      
-----------------------11--|---L--6-----------------|---------------------|
--11--8--6--8----6--8------|---------8--------------|---------------------|
---------------------------|------------8--------L--|--L----8------7------|
---------------------------|------------------------|---------------------|
---------------------------|------------------------|---------------------|
---------------------------|------------------------|---------------------|


    SH                                               
    W                      E   Q     Q     E   Q     
-----------------------|----------------------------|
-----------------------|--13--13----13----13--15----|
--<>4b~----------------|----------------------------|
-----------------------|----------------------------|
-----------------------|----------------------------|
-----------------------|----------------------------|


   E   E   E   E   H            E   Q     Q     E   Q     
----------------------------|----------------------------|
--16--15--13----------------|--13--13----13----13--15----|
--------------15--12--------|----------------------------|
----------------------------|----------------------------|
----------------------------|----------------------------|
----------------------------|----------------------------|


    Q      Q      Q      Q        E   Q     Q     E   Q     
------------------------------|----------------------------|
--/16----/18----/19----/20----|--13--13----13----13--15----|
------------------------------|----------------------------|
------------------------------|----------------------------|
------------------------------|----------------------------|
------------------------------|----------------------------|


   E   E   E   E   H            E   Q     Q     E   Q     
----------------------------|--16--16----16----15--16----|
--16--18--16--15------------|----------------------------|
------------------17--------|----------------------------|
----------------------------|----------------------------|
----------------------------|----------------------------|
----------------------------|----------------------------|


   E   E   E   E   E   E   E   E      E   Q     Q     E   Q     
----------------------------------|----------------------------|
--20--18--16--15--18--16--15--13--|--16--16----16----16--18----|
----------------------------------|----------------------------|
----------------------------------|----------------------------|
----------------------------------|----------------------------|
----------------------------------|----------------------------|


   |-----3-----|                                              
   Q     Q     Q     H            E   Q     Q     E   E   E   
------------------------------|------------------------------|
--20----18----16--------------|--16--16----16----16--15--13--|
--------------------17--------|------------------------------|
------------------------------|------------------------------|
------------------------------|------------------------------|
------------------------------|------------------------------|


   Q.     Q    E  Q        E   Q     Q     E   Q     
-----------------------|----------------------------|
--11------8----8--6----|--16--16----16----16--18----|
-----------------------|----------------------------|
-----------------------|----------------------------|
-----------------------|----------------------------|
-----------------------|----------------------------|


   |-----3-----|                                            
   Q     Q     Q     H            E   Q     Q     E   Q     
------------------------------|--16--16----16--------16----|
--20----18----16--------------|------------------18--------|
--------------------17--------|----------------------------|
------------------------------|----------------------------|
------------------------------|----------------------------|
------------------------------|----------------------------|


                         |---3---|   |---3---|   |---3---|   |---3---|   
   W                     E   E   E   E   E   E   E   E   E   E   E   E   
---------------------|--------------------------------------------------|
--20~----------------|--------------------------------------13--15--16--|
---------------------|--------------------------12--14--15--------------|
---------------------|--------------12--14--15--------------------------|
---------------------|--12--14--15--------------------------------------|
---------------------|--------------------------------------------------|


   |---------3---------|                                  
   H         H         H           E  Q     Q    E  Q     
--15----------------------------|------------------------|
------------16--------13--------|--L--9----11----9--8----|
--------------------------------|------------------------|
--------------------------------|------------------------|
--------------------------------|------------------------|
--------------------------------|------------------------|


   S  S  S  S  S  S  S  S  S  S  S  S  S  S  S S    Q.     Q    E  E  E   
-----------------------13-11-10------------------|-----------------------|
--------------13-15-16----------13-11------------|--4------8----6--4--6--|
--10-12-13-15-------------------------13-12-10-9-|-----------------------|
-------------------------------------------------|-----------------------|
-------------------------------------------------|-----------------------|
-------------------------------------------------|-----------------------|


                            |---3---|   |---3---|   |---3---|   |---3---|   
   E  E  E  H        E      E   E   E   E   E   E   E   E   E   E   E   E   
--11--6-----------------|--------------------------------------------------|
---------8--------------|--------------------------------------13--15--16--|
------------8--------L--|--------------------------12--14--15--------------|
------------------------|--------------12--14--15--------------------------|
------------------------|--12--14--15--------------------------------------|
------------------------|--------------------------------------------------|


   |---------3---------|            |----3----|               
   H         H         H            Q    Q    Q    Q    Q     
--15--------16--------15--------|----------------------------|
--------------------------------|--13----8----6----8---------|
--------------------------------|-----------------------5----|
--------------------------------|----------------------------|
--------------------------------|----------------------------|
--------------------------------|----------------------------|


              SH                                                   
  |-----3-----|                  |-----3-----|     |----3----|     
  Q    Q      Q     Q    Q       Q     Q     Q     Q    Q    Q     
------------------------------|-------11----11----11----6---------|
--3----4----<>6b----4----3----|--8---------------------------8----|
------------------------------|-----------------------------------|
------------------------------|-----------------------------------|
------------------------------|-----------------------------------|
------------------------------|-----------------------------------|


  |----3----|                                                   
  Q    Q    Q    H            E   E   E   E    E    E   E   E   
--------------------------|--------------13s--16s--13----------|
--8----6----4----3--------|----------13----------------13------|
--------------------------|------13------------------------13--|
--------------------------|--15--------------------------------|
--------------------------|------------------------------------|
--------------------------|------------------------------------|


                                       |--3--|  |--3--|  |--3--|  |--3--|   
   E   E   E   E    E    E   E   E     E  E  E  E  E  E  E  E  E  E  E  E   
--------------13s--16s--13----------|--------------------------------------|
----------13----------------13------|--------------------------------------|
------13------------------------13--|--------------------------------------|
--15--------------------------------|--3--4--6--4--6--8--8--6--4--6--4--3--|
------------------------------------|--------------------------------------|
------------------------------------|--------------------------------------|


  H        Q    Q       H        H                                 
---------------------|--------------------|-------|-------|-------|
--3--------4----3----|--1-----------------|-------|-------|-------|
---------------------|--------------------|-------|-------|-------|
---------------------|--------------------|-------|-------|-------|
---------------------|--------------------|-------|-------|-------|
---------------------|--------------------|-------|-------|-------|


   H         Q    Q       Q     H.              Q    Q     Q     Q     
-----------------------|---------------------|------------------15----|
--16--------13----8----|--7----13------------|-------8----13----------|
-----------------------|---------------------|------------------------|
-----------------------|---------------------|------------------------|
-----------------------|---------------------|------------------------|
-----------------------|---------------------|------------------------|


                                   |----3----|                           
   H         H           H         Q    Q    Q       H.           E  E   
----------------------|------------8--------------|---------------------|
--16--------15--------|--6b-------------8----6----|--4------------3--4--|
----------------------|---------------------------|---------------------|
----------------------|---------------------------|---------------------|
----------------------|---------------------------|---------------------|
----------------------|---------------------------|---------------------|


                               |-----3-----|                
  E  E  E  E  E  E  E   E      Q     Q     Q     H          
---------------------------|--------------------18b--------|
--3--4--3--4--6--8--8--13--|--16----18----16---------------|
---------------------------|-------------------------------|
---------------------------|-------------------------------|
---------------------------|-------------------------------|
---------------------------|-------------------------------|


    Whammy Pedal (if you can afford one =p )             
    H                                        Q     Q     
--------------------------------------------------------|
--/16--------------------------------------/11----/8----|
--------------------------------------------------------|
--------------------------------------------------------|
--------------------------------------------------------|
--------------------------------------------------------|


   Q      H.              Q      Q      Q      Q         H          H         
-----------------------|---------------------/15----|------------------------|
--/7----/13------------|-------/13----/16-----------|--/16--------/15--------|
-----------------------|----------------------------|------------------------|
-----------------------|----------------------------|------------------------|
-----------------------|----------------------------|------------------------|
-----------------------|----------------------------|------------------------|


  H         H            H         H            H.            E   E   
---------------------|--15--------20--------|--16------------18--16--|
-----------13--------|----------------------|------------------------|
---------------------|----------------------|------------------------|
---------------------|----------------------|------------------------|
---------------------|----------------------|------------------------|
---------------------|----------------------|------------------------|


   W                   H        H            H         H         
--15----------------|--------------------|--15--------15--------|
--------------------|-----------8--------|----------------------|
--------------------|--------------------|----------------------|
--------------------|--------------------|----------------------|
--------------------|--------------------|----------------------|
--------------------|--------------------|----------------------|


   W                    W                   H         H         
--13----------------|--11----------------|-----------11--------|
--------------------|--------------------|---------------------|
--------------------|--------------------|---------------------|
--------------------|--------------------|---------------------|
--------------------|--------------------|---------------------|
--------------------|--------------------|---------------------|


   H        H            W                   W                 
--10--------8--------|--10----------------|--5----------------|
---------------------|--------------------|-------------------|
---------------------|--------------------|-------------------|
---------------------|--------------------|-------------------|
---------------------|--------------------|-------------------|
---------------------|--------------------|-------------------|


  H         H           H         H            H.            E  E   
--L--------10--------|--8--------10--------|--11------------10--8--|
---------------------|---------------------|-----------------------|
---------------------|---------------------|-----------------------|
---------------------|---------------------|-----------------------|
---------------------|---------------------|-----------------------|
---------------------|---------------------|-----------------------|


                                  |--3--|                                       
   W             
Добавлено: 05.12.2013
Другие материалы по этой песне:
  • Аккорды и текст

Страница создана 05.12.2013
http://primanota.ru/misc-unsigned-bands/powerglove-mario-minor-chords.htm
Привет, Гость.
Предлагаем пройти революционный курс по гитаре.
Подарок от PrimaNota.Ru, забирай!