PrimaNota.ru - самый крупный в мире бесплатный архив песенных текстов, аккордов, табулатур и нот


Misc Unsigned Bands - Podunk Poets - Lucky In Love - аккорды и текст

Регистрация Запомнить меня
Войти через:  Facebook Google Twitter Vk Yandex Mail.ru

Misc Unsigned Bands - Podunk Poets - Lucky In Love - аккорды и текст

Печатать
Просмотров: 105
Podunk Poets - Lucky In Love
Misc Unsigned Bands
Lucky in Love  -  Podunk Poets

This song is written for a male/female duet in the style of the 
classic Country Music duets of the 1950's and 60's.

Originally written in Key F = CAPO on fret #1  Play a fast rhythm:


Intro: Riff #1

         e|--------------10-13-13-10-------13-10---------------------|
         B|--9-/-10--13--------------13-10--------18-10--------------|
         G|----------------------------------------------9-/-10------|
         D|----------------------------------------------------------|
         A|----------------------------------------------------------|
         E|----------------------------------------------------------|


Verse 1. (Male voice only)
         E
         Well it's a game that we're playin',
                                      B7
         Not pointin' fingers but I'm sayin',

         I'm goin' to hold you to repayin',
                             E
         'Cause you stole my heart.


Verse 2. (Female voice only)
         E
         What kinda' payment are you askin' for?
                                          B7
        'Cause when I give - you're gonna want more,

         You know my hand is like an open door,
                             E
         Deal me a brand new start.


Pre-Chorus 1. 
         E                     D             E
(Male)   Well you talk and you laugh and you tease,
         E                        D           E
(Female) You did'nt really think.... Oh honey please.
         E
(Male)   You are the winnin' prize,
             Ab                     B7
(Female) I'm bettin' on ya guy, get ready.
                       Ab  A
(Male)   Keep it steady.


Chorus 1. (Both)
         A
         Let's roll the dice, whatever price.
               E
         Let's move ahead two spaces, together would be nice.
         A
         Takes two to dance, and I'll take that chance.
               E                            B7               E
         Let's move ahead two spaces and collect romance, my love.
         B7                     E
         We're getting lucky in love.


Instrumental, Riff #2. (same as intro)

         e|--------------10-13-13-10-------13-10---------------------|
         B|--9-/-10--13--------------13-10--------18-10--------------|
         G|----------------------------------------------9-/-10------|
         D|----------------------------------------------------------|
         A|----------------------------------------------------------|
         E|----------------------------------------------------------|


Verse 3. (Female voice only)
         E
         Would ya quit it with your poker face,
                                  B7
         Shouldn't have it in the first place.

         There's no penalty for sharin' space,
                                 E
         I'm goin' to stay right here.


Verse 4. (Male Voice only)
         E
         Today my luck will hit the jackpot,
                                      B7
         What I won cannot be sold or bought,

         I am bettin' that we're going to tie the knot,
                           E
         I'm cashing in my dear.


Pre-Chorus 2.
         E                     D             E
(Male)   Well you talk and you laugh and you tease.
         E                      D      E
(Female) When will you get down on one knee?
         E
(Male)   I'm goin' all for broke,
            Ab               B7
(Female) My lovin' is no joke, get ready.
                      Ab  A
(Male)   Keep it steady.


Chorus 2. (Both)
         A
         Let's roll the dice, whatever price.,
               E
         Let's move ahead two spaces, together would be nice.
         A
         Takes two to dance, and I'll take that chance,
               E                            B7               E
         Let's move ahead two spaces and collect romance, my love.
         B7                     E
         We're getting lucky in love.


Instrumental: Riff #3 + Drums

        e|------------------------------| 
        B|--10---------10--8------------| 
        G|--10--7------10-----10--------| 
        D|---------10-------------------| 
        A|------------------------------| 
        E|------------------------------| 


Verse 5. 
        A
(Male)  Blackjack or Roulette, I'm placing my bet.
        E
(Male)  Prayin' for two big payouts. 
        A
(Female)Oh Texas hold'em, you're mighty handsome,
        B7                                         E
(Female)Spread your chips around, (Male) the world.


Instrumental: Riff 4,

    Π   V   Π   V   Π   V   Π
e|-17--16--17--16--17--16--17--17--13----13------------------------------------------------------------|
B|-16--16--16--16--16--16--16---------15----15----------15----15p-13-----------------------------------|
G|---------------------------------------------13/14--17---17-------------------14---------------14----|
D|--------------------------------------------------------------------17p-14-17----17--13/14--17----17-|
A|-----------------------------------------------------------------------------------------------------|
E|-----------------------------------------------------------------------------------------------------|

e|----13-----------------------------------------------------13/18--|
B|-12----14p12--------12-------------13\12-10----------10/17--------|
G|--------------15\14-------------------------12-10/14--------------|
D|-----------------------15-14-13-----------------------------------|
A|--------------------------------15--------------------------------|
E|------------------------------------------------------------------|


Chorus 3. (Both)
        A  
        Let's roll the dice, whatever price? 
        E
        Let's move ahead two spaces together would be nice.
        A
        It takes two to dance, and I'll take that chance,
              E                            B7               E
        Let's move ahead two spaces and collect romance, my love.
        B7                     E
        We're getting lucky in love.

Coda:   (Both)                                             Notation: Π = down pick
        B7             E                                             V = up pick
        Oh so lucky in love,                                         \ = slide down
        B7                     E                                     / = slide up
        We're getting lucky in love.                                 h = hammer on
                                                                     p = pull off
                 B7                            E
Backing Chorus: (We're getting lucky, lucky in love).


This is my first try at TAB for the lead guitar parts, 
so any corrections or suggestions would be appreciated.


Добавлено: 02.10.2015
Другие материалы по этой песне:
  • Аккорды и текст

Страница создана 02.10.2015
http://primanota.ru/misc-unsigned-bands/podunk-poets-lucky-in-love-chords.htm
Привет, Гость.
Предлагаем пройти революционный курс по гитаре.
Подарок от PrimaNota.Ru, забирай!