PrimaNota.ru - самый крупный в мире бесплатный архив песенных текстов, аккордов, табулатур и нот


Misc Unsigned Bands - Proxima Parada - Brightside - аккорды и текст

Регистрация Запомнить меня
Войти через:  Facebook Google Twitter Vk Yandex Mail.ru

Misc Unsigned Bands - Proxima Parada - Brightside - аккорды и текст

Печатать
Просмотров: 85
Proxima Parada - Brightside
Misc Unsigned Bands
"Brightside" by Próxima Parada

Próxima Parada is San Luis Obispo local band and make some super-fine
jazz/rock/lil'-bit-of-everything. Check 'em out at http://www.proximaparadamusic.com/

A:     5-7-7-6-5-5
B:     7-9-9-8-7-7
C#m:   9-11-11-9-9-9
D7M    x-5-7-6-7-5
E6:    x-7-9-9-9-9
F#m7:  x-9-11-9-10-9
    

[Intro riff]:

e|---------------------------------------------------------------------------|
B|---------------------------------------------------------------------------|
G|-----------------------9-----------------------------11--------------------|
D|----11--11-----------9---9--------7--7------------11------11---------------|
A|---x------11------/7----x-------x------7-------/9-------x------------------|
E|-9----------9-----------------5----------5---------------------------------|


[Verse]:
C#m         E6               A      Fm7
  I've been down for so damn long
           C#m     E6           A     Fm7
  Now it's too hard to get back up
C#m              E6              A     Fm7
  Don't want you thinkin I'm not tryin
          C#m       E6              A      Fm7
  On this road, too long to give it up


[Pre-chorus]:
            C#m       E6            A      Fm7
  Given the right way, I choose the wrong
            C#m        E6                A      Fm7
  Given the short way, always choose the long
            C#m          E6                       A     Fm7
  Given the bad way, you know I'm gonna take that one
        C#m           E6
  But I keep on movin on
        A             Fm7
  Ya, I keep on movin on


[Chorus]:
  B                                       A
  It's alright, look on the Brightside, you're tellin me
              B                                    A
  I've waited so long, look on the Brightside, now I can see
     F#m  E6      D7M  
  Now I   can(uh) see


[Intro riff]  x2


[Verse 2]:
C#m         E6                      A      Fm7
  Hear that light, come through the cracks
        C#m      E6     A     Fm7
  As it stings me in my eyes
C#m         E6             A      Fm7
  I keep on thinkin I'm so tired
         C#m          E6           A      Fm7
  Waited too damn long for this disguise


[Pre-chorus]:
            C#m       E6            A      Fm7
  Given the right way, I choose the wrong
            C#m        E6                A      Fm7
  Given the short way, always choose the long
            C#m          E6                       A     Fm7
  Given another way, you know I'm gonna take that one
        C#m           E6
  But I keep on movin on
        A             Fm7
  Ya, I keep on movin on



[Chorus]:
  B                                       A
  It's alright, look on the Brightside, you're tellin me
              B                                    A
  I've waited so long, look on the Brightside, now I can see
     F#m  E6      D7M  
  Now I   can(uh) see


[Intro riff]    x12
e|---------------------------------------------------------------------------|
B|---------------------------------------------------------------------------|
G|-----------------------9-----------------------------11--------------------|
D|----11--11-----------9---9--------7--7------------11------11---------------|
A|---x------11------/7----x-------x------7-------/9-------x------------------|
E|-9----------9-----------------5----------5---------------------------------|


[Instrumental]


[Chorus]:
  B                                       A
  It's alright, look on the Brightside, you're tellin me
              B                                    A
  I've waited so long, look on the Brightside, now I can see
     F#m  E6      D7M  
  Now I   can(uh) see
   *let the last D7M   ring
Добавлено: 02.10.2015
Другие материалы по этой песне:
  • Аккорды и текст

Страница создана 02.10.2015
http://primanota.ru/misc-unsigned-bands/proxima-parada-brightside-chords.htm
Привет, Гость.
Предлагаем пройти революционный курс по гитаре.
Подарок от PrimaNota.Ru, забирай!