PrimaNota.ru - самый крупный в мире бесплатный архив песенных текстов, аккордов, табулатур и нот


Misc Unsigned Bands - Ogiso Setsuna - Toki No Mahou - таба

Регистрация Запомнить меня
Войти через:  Facebook Google Twitter Vk Yandex Mail.ru

Misc Unsigned Bands - Ogiso Setsuna - Toki No Mahou - таба

Печатать
Просмотров: 79
時の魔法 (acoustic version), 小木曽雪菜
WHITE ALBUM2: ORIGINAL SOUNDTRACK ~setsuna~

Toki no Mahou (The Magic of Time), by Ogiso Setsuna (Yonezawa Madoka)


4/4 timing, 73bpm, standard tuning

|-----0-----------|-----------------|-----0-----------|-------------2---|
|-----0-------3---|-----1-------3---|-----0-------3---|-----1-------3---|
|---0---------2---|-----0---0---2---|---0---0-----2---|-----0-----2-----|
|-----------4---4-|---2---2---------|-----------4---4-|---2---2-0-------|
|-3-----0-2-------|-0-----------2---|-3-------2-------|-0---------------|
|-----------------|-----------------|-----------------|-----------------|


|-3---------------|-2-------3-------|-0-------2-------|-------------0---|
|-0---0---1-------|-----3---0-------|-0---0-------3---|-3-----------0---|
|-0-0---0-0---0---|---2---2---------|-0-0---0---2-----|-----2-----1---1-|
|-----------2-----|-----------------|---------0-------|---4---4---------|
|-----------------|-----------------|-3-------------0-|-2---------------|
|-3-------3-------|-3-------3-------|-----------------|---------0-------|


|-----0-------0---|-2---------------|-0-------2-------|-2-----2-----0---|
|-----1-------1---|-----3---0---3---|-----0-------3---|-----1-------0---|
|---0---0---0-----|---2---2---------|---0---0---2-----|---2-------0-----|
|---------0-------|-----------0-----|---------0-------|-1-------------0-|
|-0---------------|-------------2---|-3---------------|-----------------|
|-----------------|-3-------3-------|-----------------|---------0-------|


|---------0-------|---------0-------|-0-------2-------|---------2-------|
|-----1-------1---|-----1-----------|-----0-------3---|-3-----------0---|
|-----0-------0---|---0---0---------|---0-------2-----|-----2-------0---|
|---2---2---2---2-|-0-----------3---|-----------------|---4---4-----2---|
|-0---------------|-------------4---|-3-----0-3-----0-|-2---------------|
|-----------------|-----------------|-----------------|-------------0---|


|---------0-------|-----------------|-0-------2-------|---------2---0---|
|-1-----1-----1---|-0-------1-------|-----0-------3---|-3-----------0---|
|-----0-----0-----|-----0---0-------|---0-------2-----|-----2-------1---|
|---2-----0-----0-|---0---------3---|-----------------|---4---4---------|
|-0---------------|-------------4---|-3-----0-3-----0-|-2---------------|
|-----------------|-3-------3-------|-----------------|-------------0---|


|---------0-------|-----0---2-------|-3-----3-2-------|-0---------------|
|-1-----1-----1---|-----1-------3---|-----3-----------|-----0-------0---|
|-----0-----0---0-|---0---0---2---2-|---2-------------|---0---------2---|
|---2-------------|-0-------0-------|-0---------------|-----------1---1-|
|-0---------------|-----------------|-----------------|-3-----0-2-------|
|-----------------|-----------------|-----------------|-----------------|


|-----0---1-------|-----0-----------|-----0---1---1---|-0-----------2---|
|-----0-------1---|-----0-------0---|-----0-----------|-----0-----------|
|-----0-0---2---2-|---0---------2---|---0---0---2-----|---0-------2---2-|
|---2-----0-------|-----------1---1-|---------0-------|-----------------|
|-----------------|-3-----0-2-------|-----------------|-3-----0-2-------|
|-0-----------3---|-----------------|-0-----------3---|-----------------|


|-----0---1---1---|-0-------0-------|-3---2-----------|-0---------------|
|-----------------|-----0-------0---|-3---3---3-------|-0---0---3-------|
|---0---0---2---2-|---0---0---0-----|---2---2---------|-0-0-----2---2---|
|---------0-------|-----------------|-0---------------|-----------4---4-|
|-----------------|-3---------------|-----------------|-3-----0-2-------|
|-0-----------3---|-----------------|-----------------|-----------------|


|---------0-------|-0---------------|---------2-------|-0-------2-------|
|-----1-------3---|-----0---3-------|-------1-3---3---|-----0-------3---|
|-----0-------2---|---0-----2---2---|-----0---2-------|---0---0---2-----|
|---2---2---------|-----------4---4-|---2-----0-------|---------0-------|
|-0---------0-2---|-3-----0-2-------|-0---------------|-3---------------|
|-----------------|-----------------|-----------------|-----------------|


|-------------0---|---------0-------|-2---------------|-0-------2-------|
|-3-------------0-|-------1-----1---|-----3---0---3---|-----0-------3---|
|-----2-----1-----|-----0-----0-----|---2---2-----0---|---0---0---2-----|
|---4---4---------|---2-----0-------|-----------------|---------0-------|
|-2---------------|-0---------------|-------------2---|-3---------------|
|---------0-------|-----------------|-3-------3-------|-----------------|


|-2-----------0---|---------0-------|-0---------------|-0-------2-------|
|-----1-------0---|-1-----1-----1---|-1---1-----------|-----0-------3---|
|---2---2---0---0-|-----0-----0---0-|---0---0---------|---0-------2-----|
|-1---------------|---2-------------|-0-------0---3---|-----------------|
|-----------------|-0---------------|-------------4---|-3-----0-3-----0-|
|---------0-------|-----------------|-----------------|-----------------|


|---------0-------|-------------0---|-----------------|-0-------2-------|
|-3-----------0---|-----1-------1---|-0-------1---4---|-----0-------3---|
|-----2-------1---|-----0-----0---0-|-----0---0-------|---0-------2-----|
|---4---4---------|---2---2-0-------|---0---0-----3---|-----------------|
|-2---------------|-0---------------|-------------4---|-3-----0-3-----0-|
|-------------0---|-----------------|-3-------3-------|-----------------|


|---------0---0---|---------0-------|-----0---2-------|-3-----3-2-------|
|-3-----------0---|-1-----1-----1---|-----1-------3---|-----3---3-------|
|-----2-------1---|-----0-----0---0-|---0---0---2---2-|---2-------------|
|---4---4---------|---2-------------|-0-------0-------|-0-------0-------|
|-2---------------|-0---------------|-----------------|-----------------|
|-------------0---|-----------------|-----------------|-----------------|


|-0-----------2---|-----0---1---1---|-0-------2-------|-----0---1---1---|
|-0---0-------0---|-----0-----------|-----0-------0---|-----0-------1---|
|-0-0-------2---2-|---0---0---2---2-|---0-------2---2-|---0---0---2-----|
|-----------------|---------0-------|-----------------|---------0-------|
|-3-----0-2-------|-----------------|-3-----0-2-------|-----------------|
|-----------------|-0-----------3---|-----------------|-0-----------3---|


|-0-------2-------|-----0---1---1---|-0-------0-------|-3---2-------2---|
|-----0-------0---|-----0-----------|-----0-------0---|-3---3---3-------|
|---0-------2---2-|---0---0---2---2-|---0---0---0-----|-2-2---2---2-----|
|-----------------|---------0-------|-----------------|-0---------------|
|-3-----0-2-------|-----------------|-3---------------|-----------------|
|-----------------|-0-----------3---|-----------------|-----------------|


|-2---------------|-0---------------|-2-----2---3---0-|-----------0-----|
|-----3-0-----0---|-----1-3-----1---|-----3-----0---0-|-----------0-----|
|---2---0-----0---|---0---0---0-0---|---2-----------0-|---0-----0-------|
|-----------0---0-|---------------2-|-0---------------|-----0h2-------0-|
|-----------------|-3-----2-----0---|---------------3-|-----------------|
|-2-----3---------|-----------------|-------3---3-----|-----------------|


|---------0-------|-----------------|-----------------|-----------------|
|---------1-------|-----1-3---------|-------1---------|-1-----3---------|
|-----0-----0---0-|---0-----------2-|-0---0-----0---0-|---0---2-----2---|
|---2---2-----2---|--------- ---4---|---2---------2---|-----------4-----|
|-0---------------|-0-----2---------|-0---------------|-0-----2---------|
|-----------------|-----------------|-----------------|-----------------|


|-0-------2-------|-------------0---|-----------------|-3-----3-----3---|
|-----1-------3---|-------0-1-------|---------2-------|-----3-----------|
|---0---0---2-----|-----0-----0-----|-----2-------2---|---2---------2-2-|
|---------0-------|---0-------------|---2---2---2-----|-0---------0-----|
|-3---------------|---------3-----3-|-4---------------|-----------------|
|-----------------|-3---------------|-----------------|-----------------|


|-2-------2-------|-0-------2-------|-0-------1---1---|-0-------2-------|
|-----3---3-------|-1---------------|-0---------------|-1-------3-------|
|---2---2---------|-----------------|-0---------------|---------2-------|
|-0-------0-------|-----------------|---------0-------|-----------------|
|-----------------|-3-------2-------|-----------------|-3-------2-------|
|-----------------|-----------------|-0-----------3---|-----------------|


|---------1-------|-0-------2-------|-----0---1---1---|-0-------0-------|
|-------0-----1---|-----0-------0---|-----0-----------|-0---0-------0---|
|-----0-----2-----|---0-------2---0-|---0---0---2---2-|-0-0---0---0---0-|
|---2-----0-------|-----------------|---------0-------|-----------------|
|-----------------|-3-----0-2-------|-----------------|-3---------------|
|-0-----------3---|-----------------|-0-----------3---|-----------------|


|-3---2---0---2---|-0-----------2---|-----0-----------|-0---------------|
|-3---3---3---3---|-0---0---3-----3-|-----1-------3---|-----0---3-------|
|-2-2---2---2---2-|---0-----2-------|---0---0---------|---0---0-----2---|
|-0---------------|-----------4-----|---------2---4---|-----------4---4-|
|-----------------|-3-----0-2-------|-0-----------2---|-3-------2-------|
|-----------------|-----------------|-----------------|-----------------|


|-----0---2-------|-0---------------|-----0-----------|-0---------------|
|-----1-------3---|-0---0---3-------|-----1-------3---|-0---0---3-------|
|---0---0---2---2-|---0-----2---2---|---0---0-----2---|---0-----2---2---|
|---------0-------|-----------4---4-|---------2-------|-----------4---4-|
|-0---------------|-3-----0-2-------|-0-----------2---|-3-----0-2-------|
|-----------------|-----------------|-----------------|-----------------|


|-----0-------2---|-3-------3-------|-2-------3-------|-(3)-------------|
|-----1-------3---|-----0---1---1---|-----3---0-------|-(0)-------------|
|---0---0---2-----|---0---0---0---0-|---2---2-0-------|-(0)-------------|
|---------0-------|-----------------|---------0-------|-(0)-------------|
|-0---------------|-----------------|---------2-------|-(2)-------------|
|-----------------|-3-------3-------|-3-------3-------|-(3)-------------|
Добавлено: 11.07.2013
Другие материалы по этой песне:
  • Аккорды и текст

Страница создана 11.07.2013
http://primanota.ru/misc-unsigned-bands/ogiso-setsuna-toki-no-mahou-chords.htm
Привет, Гость.
Предлагаем пройти революционный курс по гитаре.
Подарок от PrimaNota.Ru, забирай!