PrimaNota.ru - самый крупный в мире бесплатный архив песенных текстов, аккордов, табулатур и нот


Misc Unsigned Bands - Ruben Block - Sweet Dreams - таба

Регистрация Запомнить меня
Войти через:  Facebook Google Twitter Vk Yandex Mail.ru

Misc Unsigned Bands - Ruben Block - Sweet Dreams - таба

Печатать
Просмотров: 137
Уроки эстрадного вокала в Санкт-Петербурге
Title: sweet dreams
Tempo = 100
Steel Guitar

Legend
L - tied note
x - dead note
h - hammer on/pull off
b - bend
s - slide
~ - vibrato
g - ghost note
> - accentuated note
t - trill
M - palm mute
. - staccato
P - popping (bass)
S - slapping (bass)
+ - tapping
W - wide vibrato
< - fade in
w - whammy bar
= - tremolo picking
v - brush up
^ - brush down
V - pick stroke up
n - pick stroke down

play 8x first 2 are intro..
  D ||---------------------------------------------------|
  A ||---------------------------------------------------|
  F ||o------------7-----7--10-10-10-10----7-------------|
  C ||o--------------------------------------------------|
  G ||-------------5-----5--8--8--8--8-----5-------------|
  C ||-0-----0-----------------------------------0-------|

  -x-----x-----x-----x--x-----x--x-----x-----x------||
  --6-----6-----6-----6--6-----5--5-----5-----5------||
  --x-----x-----x-----x--x-----x--x-----x-----x-----o||
  --8-----8-----8-----8--8-----7--7-----7-----7-----o||
  --x-----x-----x-----x--x-----x--x-----x-----x------||
  --8-----8-----8-----8--8-----7--7-----7-----7------||

 high singing part
  ----------------------------------------------------|
  --11----11----11----11-11----11-11----11----11------|
  --10----10----10----10-10----10-10----10----10------|
  --8-----8-----8-----8--8-----8--8-----8-----8-------|
  ----------------------------------------------------|
  ----------------------------------------------------|


  ----------------------------|----------------------------|
  --11-11-11-11-10-10-10-10---|----------------------------|
  --10-10-10-10-9--9--9--9----|--7--7--7--7--7--7--7--7----|
  --8--8--8--8--7--7--7--7----|--7--7--7--7--7--7--7--7----|
  ----------------------------|--5--5--5--5--5--5--5--5----|
  ----------------------------|----------------------------|


  ----------------------------|
  ----------------------------|
  ----------------------------|
  --5--5--5--5--5--5--5--5----|
  --5--5--5--5--5--5--5--5----|
  --5--5--5--5--5--5--5--5----|


  ----------------------------------------------------|
  --11----11----11----11-11----11-11----11----11------|
  --10----10----10----10-10----10-10----10----10------|
  --8-----8-----8-----8--8-----8--8-----8-----8-------|
  ----------------------------------------------------|
  ----------------------------------------------------|


  ----------------------------||
  --11-11-11-11-10------------||
  --10-10-10-10-9-------------||
  --8--8--8--8--7-------------||
  ----------------------------||
  --------------------12s-----||

sweet dreams are... 4x
  ---------------------------------------------------|
  ---------------------------------------------------|
  o------------7-----7--10-10-10-10----7-------------|
  o--------------------------------------------------|
  -------------5-----5--8--8--8--8-----5-------------|
  -0-----0-----------------------------------0-------|


  --x-----x-----x-----x--x-----x--x-----x-----x------||
  --6-----6-----6-----6--6-----5--5-----5-----5------||
  --x-----x-----x-----x--x-----x--x-----x-----x-----o||
  --8-----8-----8-----8--8-----7--7-----7-----7-----o||
  --x-----x-----x-----x--x-----x--x-----x-----x------||
  --8-----8-----8-----8--8-----7--7-----7-----7------||

high singing part again
  ----------------------------------------------------|
  --11----11----11----11-11----11-11----11----11------|
  --10----10----10----10-10----10-10----10----10------|
  --8-----8-----8-----8--8-----8--8-----8-----8-------|
  ----------------------------------------------------|
  ----------------------------------------------------|


  ----------------------------|----------------------------|
  --11-11-11-11-10-10-10-10---|----------------------------|
  --10-10-10-10-9--9--9--9----|--7--7--7--7--7--7--7--7----|
  --8--8--8--8--7--7--7--7----|--7--7--7--7--7--7--7--7----|
  ----------------------------|--5--5--5--5--5--5--5--5----|
  ----------------------------|----------------------------|

 
  ----------------------------|
  ----------------------------|
  ----------------------------|
  --5--5--5--5--5--5--5--5----|
  --5--5--5--5--5--5--5--5----|
  --5--5--5--5--5--5--5--5----|

  
  ----------------------------------------------------|
  --11----11----11----11-11----11-11----11----11------|
  --10----10----10----10-10----10-10----10----10------|
  --8-----8-----8-----8--8-----8--8-----8-----8-------|
  ----------------------------------------------------|
  ----------------------------------------------------|

                                 keep your head on..
  ----------------------------||---------------|---------------|||
  --11-11-11-11-10------------||---------------|---------------|||
  --10-10-10-10-9-------------||o--------------|--------------o|||
  --8--8--8--8--7-------------||o7.------------|--------------o|||
  -----------------------0----||-5.------------|--5.-----------|||
  -----------------------0----||----x--x--x----|--5.-x--x--x---|||

 
  ---------------------------------------------------|
  ---------------------------------------------------|
  o--------------------------------------------------|
  o7-----------7-----7--7-----7--7-----7-----7-------|
  -5.----------5-----5--5-----5--5-----5-----5-------|
  ---------------------------------------------------|


  ---------------------------------------------------||
  ---------------------------------------------------||
  --------------------------------------------------o||
  --------------------------------------------------o||
  --5.----------5-----5--5-----5--5-----5-----5------||
  --5-----------5-----5--5-----5--5-----5-----5------||


  ----------------------------------------------------|
  ----------------------------------------------------|
  ----------------------------------------------------|
  --7-----------7-----7--7-----7--7-----7-----7-------|
  --5.----------5-----5--5-----5--5-----5-----5-------| 
  ----------------------------------------------------|

  5 count wait, then ''solo'' part
  ----------------------------|----------------------------|
  ----------------------------|--------------------6-------|
  ----------------------------|-----------------7-----7----|
  ----------------------------|-----------------5--5--5----|
  --5--5--5--5--x-----x-------|--x-----x-----x-------------|
  --5--5--5--5--x-----x-------|--x-----x-----x-------------|


  ----------------------------------------------------|
  ----------------------------------------------------|
  --------------5-----x--x--7-----10----7-----x-------|
  ----------------------------------------------------|
  --------------3-----x--x--5-----8-----5-----x-------|
  --0-----0-------------------------------------------|


  ----------------------------------------------------|
  ----------------------------------------------------|
  ----------------------------------------------------|  
  --8-----8-----8-----8--8--5-----7-----3-----5-------|
  --8-----8-----8-----8--8--5-----7-----3-----5-------|
  --8-----8-----8-----8--8--5-----7-----3-----5-------|


  ----------------------------------------------------|
  ----------------------------------------------------|
  --------------7-----7--10-10-10-10----7-------------|
  ----------------------------------------------------|
  --------------5-----5--8--8--8--8-----5-------------|
  --0-----0-----------------------------------0-------|


  --x-----x-----x-----x--x-----x--x-----x-----x-------|
  --6-----6-----6-----6--6-----5--5-----5-----5-------|
  --x-----x-----x-----x--x-----x--x-----x-----x-------|
  --8-----8-----8-----8--8-----7--7-----7-----7-------|
  --x-----x-----x-----x--x-----x--x-----x-----x-------|
  --8-----8-----8-----8--8-----7--7-----7-----7-------|


  ----------------------------------------------------|
  ----------------------------------------------------|
  --------------7-----7--10-10-10-10----7-------------|
  ----------------------------------------------------|
  --------------5-----5--8--8--8--8-----5-------------|
  --0-----0-----------------------------------0-------|


  --x--x--x-------------------||
  --6--6--6-------------------||
  --x--x--x--xs-13-12-10-7----||
  --8--8--8-------------------||
  --x--x--x--xs-11-10-8--5----||
  --8--8--8-------------------||

 play 5x
  ---------------------------------------------------|
  ---------------------------------------------------|
  o------------7-----7--10-10-10-10----7-------------|
  o--------------------------------------------------|
  -------------5-----5--8--8--8--8-----5-------------|
  -0-----0-----------------------------------0-------|


  --x-----x-----x-----x--x-----x--x-----x-----x------|||
  --6-----6-----6-----6--6-----5--5-----5-----5------|||
  --x-----x-----x-----x--x-----x--x-----x-----x-----o|||
  --8-----8-----8-----8--8-----7--7-----7-----7-----o|||
  --x-----x-----x-----x--x-----x--x-----x-----x------|||
  --8-----8-----8-----8--8-----7--7-----7-----7------|||

  play 3x
  ---------------------------------------------------| 
  ---------------------------------------------------|
  o--------------------------------------------------|
  o7-----------7-----7--7-----7--7-----7-----7-------|
  -5-----------5-----5--5-----5--5-----5-----5-------|
  ---------------------------------------------------|


  ---------------------------------------------------||
  ---------------------------------------------------||
  --------------------------------------------------o||
  --------------------------------------------------o||
  --5-----------5-----5--5-----5--5-----5-----5------||
  --5-----------5-----5--5-----5--5-----5-----5------||


  ----------------------------------------------------|
  ----------------------------------------------------|
  ----------------------------------------------------|
  --7-----------7-----7--7-----7--7-----7-----7-------|
  --5-----------5-----5--5-----5--5-----5-----5-------|
  ----------------------------------------------------|


  ----------------------------|----||
  ----------------------------|----||
  ----------------------------|----||
  ----------------------------|----||
  --5--5--5--5----------------|----||
  --5--5--5--5----------------|----||
Добавлено: 27.08.2013
Другие материалы по этой песне:
  • Аккорды и текст

Страница создана 27.08.2013
http://primanota.ru/misc-unsigned-bands/ruben-block-sweet-dreams-chords.htm
Привет, Гость.
Предлагаем пройти революционный курс по гитаре.
Подарок от PrimaNota.Ru, забирай!