PrimaNota.ru - самый крупный в мире бесплатный архив песенных текстов, аккордов, табулатур и нот


Misc Unsigned Bands - Tom Napier - Smiles All Round - таба

Регистрация Запомнить меня
Войти через:  Facebook Google Twitter Vk Yandex Mail.ru

Misc Unsigned Bands - Tom Napier - Smiles All Round - таба

Печатать
Просмотров: 89
Уроки эстрадного вокала в Санкт-Петербурге
What is up guys! this is a tab for Smiles All Round, though this is a acoustic cover 
version by Tom Napier, lots of folks asked for the tab on his video, and the bloke is busy 
so I thought I'd help him out!
If ya haven't seen the video here's the link: http://www.youtube.com/watch?v=wR1c06PwRaU

The Tuning of your guitar should be: DADF#Ae (and that half-step down)


Verse:

e|-------0---------|-------0---------|--------0--------|--------0--------|
A|-------0---------|-------0---------|--------0--------|--------0--------|
F|-------3---------|-------3---------|--------0--------|--------0--------|
D|-------4---------|-------0---------|--------2--------|--------2--------| 4x
A|-------4---------|-------5---------|--------2--------|--------2--------|
D|-------4---------|-------0---------|--------2--------|--------2--------|

Chorus 1:

e|---------------0----------------0---------------0--------------------0-------|
A|-----------------0---0------------0---0-----------0---0----------------0---0-|
F|-------------------0--------------------------------0--------------------0---|
D|-----------4----------------6-------6-------7------------------11------------|
A|-------5-5---5----------7-7---7---------9-9---9----------12-12----12---------|
D|-----------------------------------------------------------------------------|

e|---------------0----------------0---------------0---------0--------0---------|
A|-----------------0---0------------0---0-----------0---0---0--------0---------|
F|-------------------0--------------------------------0-----0~-------0~--------|
D|-----------4----------------6-------6-------7-------------7--------6---------|
A|-------5-5---5----------7-7---7---------9-9---9-----------9--------7---------|
D|-----------------------------------------------------------------------------|

Verse 2:


e|-------0---------|-------0---------|--------0--------|--------0--------|
A|-------0---------|-------0---------|--------0--------|--------0--------|
F|-------3---------|-------3---------|--------0--------|--------0--------|
D|-------4---------|-------0---------|--------2--------|--------2--------| 4x
A|-------4---------|-------5---------|--------2--------|--------2--------|
D|-------4---------|-------0---------|--------2--------|--------2--------|

End on:

e|-------0---------|-------0---------|
A|-------0---------|-------0---------|
F|-------0---------|-------0---------|
D|-------0---------|-------2---------| Stop on the second chord
A|-------0---------|-------2---------|
D|-------0---------|-------2---------|

Chorus 2:


e|-------0---------|-------0---------|--------0--------|--------0--------|
A|-------0---------|-------0---------|--------0--------|--------0--------|
F|-------0---------|-------0---------|--------0--------|--------0--------|
D|-------0---------|-------2---------|--------4--------|--------7--------|
A|-------0---------|-------2---------|--------4--------|--------7--------|
D|-------0---------|-------2---------|--------4--------|--------7--------|


e|-------0---------|-------0---------|--------0--------|--------0--------|
A|-------0---------|-------0---------|--------0--------|--------0--------|
F|-------0---------|-------0---------|--------0--------|--------0--------|
D|-------0---------|-------2---------|--------4--------|--------2--------|
A|-------0---------|-------2---------|--------4--------|--------2--------|
D|-------0---------|-------2---------|--------4--------|--------2--------|

(play a fast muted strum before you start this)

e|-------0---------|-------0---------|--------0--------|--------0--------|
A|-------0---------|-------0---------|--------0--------|--------0--------|
F|-------0---------|-------0---------|--------0--------|--------0--------|
D|-------0---------|-------2---------|--------4--------|--------7--------|
A|-------0---------|-------2---------|--------4--------|--------7--------|
D|-------0---------|-------2---------|--------4--------|--------7--------|


e|-------0---------|-------0---------|--------0--------|--------0--------|
A|-------0---------|-------0---------|--------0--------|--------0--------|
F|-------0---------|-------0---------|--------0--------|--------0--------|
D|-------0---------|-------2---------|--------4--------|--------7--------|
A|-------0---------|-------2---------|--------4--------|--------7--------|
D|-------0---------|-------2---------|--------4--------|--------7--------|

Breakdown:


e|-------0-0-0-0h2-2-2-2p0-0-0-0-|
A|-------0-0-0-------------------|
F|-------0-0-0-------------------|
D|-------0-----------------------|
A|-------0-----------------------|
D|-------0-----------------------|

Then keep palmuting this:

e|------------------------------|
A|------------------------------|
F|------------------------------|
D|------------------------------|
A|-------4-4-4-4-4-4-4-4-4-4-4--|
D|-------4-4-4-4-4-4-4-4-4-4-4--|

slowly built it up and just strum it.

then:

e|-------0---------|-------0---------|--------0--------|--------0--------|
A|-------0---------|-------0---------|--------0--------|--------0--------|
F|-------0---------|-------0---------|--------0--------|--------0--------|
D|-------0---------|-------2---------|--------4--------|--------7--------|
A|-------0---------|-------2---------|--------4--------|--------7--------|
D|-------0---------|-------2---------|--------4--------|--------7--------|

e|-------0---------|-------0---------|--------0--------|--------0--------|
A|-------0---------|-------0---------|--------0--------|--------0--------|
F|-------0---------|-------0---------|--------0--------|--------0--------|
D|-------0---------|-------2---------|--------4--------|--------4--xxxxxx|
A|-------0---------|-------2---------|--------4--------|--------4--xxxxxx|
D|-------0---------|-------2---------|--------4--------|--------4--xxxxxx|

e|-------0---------|-------0---------|--------0--------|--------0--------|
A|-------0---------|-------0---------|--------0--------|--------0--------|
F|-------0---------|-------0---------|--------0--------|--------0--------|
D|-------0---------|-------2---------|--------4--------|--------7--------|
A|-------0---------|-------2---------|--------4--------|--------7--------|
D|-------0---------|-------2---------|--------4--------|--------7--------|

e|-------0---------|-------0---------|--------0--------|--------0--0-------|
A|-------0---------|-------0---------|--------0--------|--------0--0-------|
F|-------0---------|-------0---------|--------0--------|--------0--0-------|
D|-------0---------|-------2---------|--------4--------|--------0--0-(stop)|
A|-------0---------|-------2---------|--------4--------|--------0--0-------|
D|-------0---------|-------2---------|--------4--------|--------0--0-------|

(vocal only: "While you sleep alone tonight") then:

e|-------0---------|-------0---------|
A|-------0---------|-------0---------|
F|-------0---------|-------0---------|
D|-------4---------|-------7---------|
A|-------4---------|-------7---------|
D|-------4---------|-------7---------|

e|-------0---------|-------0---------|--------0--------|--------0--------|
A|-------0---------|-------0---------|--------0--------|--------0--------|
F|-------0---------|-------0---------|--------0--------|--------0--------|
D|-------0---------|-------2---------|--------4--------|--------2--------|
A|-------0---------|-------2---------|--------4--------|--------2--------|
D|-------0---------|-------2---------|--------4--------|--------2--------|

Last Chorus:

e|-------0---------|-------0---------|--------0--------|--------0--------|
A|-------0---------|-------0---------|--------0--------|--------0--------|
F|-------0---------|-------0---------|--------0--------|--------0--------|
D|-------0---------|-------2---------|--------4--------|--------7--------|
A|-------0---------|-------2---------|--------4--------|--------7--------|
D|-------0---------|-------2---------|--------4--------|--------7--------|


e|-------0---------|-------0---------|--------0--------|--------0--------|
A|-------0---------|-------0---------|--------0--------|--------0--------|
F|-------0---------|-------0---------|--------0--------|--------0--------|
D|-------0---------|-------2---------|--------4--------|--------7--------|
A|-------0---------|-------2---------|--------4--------|--------7--------|
D|-------0---------|-------2---------|--------4--------|--------7--------|

Ending:


e|-------0-0-0-0h2-2-2-2p0-0-0-0---0----0-|
A|-------0-0-0-------------------=-0----0-|
F|-------0-0-0---------------------0----0-|
D|-------0-------------------------2----4-|
A|-------0-------------------------2----4-|
D|-------0-------------------------2----4-|
Добавлено: 31.07.2013
Другие материалы по этой песне:
  • Аккорды и текст

Страница создана 31.07.2013
http://primanota.ru/misc-unsigned-bands/tom-napier-smiles-all-round-chords.htm
Привет, Гость.
Предлагаем пройти революционный курс по гитаре.
Подарок от PrimaNota.Ru, забирай!