PrimaNota.ru - самый крупный в мире бесплатный архив песенных текстов, аккордов, табулатур и нот


Misc Unsigned Bands - Noah And The Whale - Mary - таба

Регистрация Запомнить меня
Войти через:  Facebook Google Twitter Vk Yandex Mail.ru

Misc Unsigned Bands - Noah And The Whale - Mary - таба

Печатать
Просмотров: 36
http://www.myspace.com/noahandthewhale

Intro - (very slow)
E---10---7---5---3---0---3---5---7------|
B---------------------------------------|
G---------------------------------------|
D---------------------------------------|
A---------------------------------------|
E---------------------------------------|

E---10---7---5---------------5---7---5---3---|
B----------------8---5---8-------------------|
G--------------------------------------------|
D--------------------------------------------|
A--------------------------------------------|
E--------------------------------------------|

Riff - (Normal Speed)
E---10---7---7---3---3h5---5---3---5---7-----|
B--------------------------------------------|
G--------------------------------------------|
D--------------------------------------------|
A--------------------------------------------|
E--------------------------------------------|

E---10---7---7---3---3h5----5---3---5---7---5---3---|
B---------------------------------------------------|
G---------------------------------------------------|
D---------------------------------------------------|
A---------------------------------------------------|
E---------------------------------------------------|

E---10---7---7---3---3h5---5---3---5---7---5---3-------------|
B-------------------------------------------------------0----|
G---------------------------------------------------0h2----0-|
D------------------------------------------------------------|
A------------------------------------------------------------|
E------------------------------------------------------------|

    G                    C
Oh the cold wet wind blew over the heavens
G                        C
your old charlie and mary hold forever
G                        C                     G              C
on the back of the rock that you picked up on the way
G                               C
in that perfect moment i nearly ruined it
G                               C
saying I loved you and nearly meaning it
G                    C                G         C
and you know what we never waste those words
D                          C                   G                G
but when i last saw mary she lied and said it was her birthday
D                          C                   G                G
oh when i last saw mary she lied and said it was her birthday

E---10---7---7---3---3h5---5---3---5---7-----|
B--------------------------------------------|
G--------------------------------------------|
D--------------------------------------------|
A--------------------------------------------|
E--------------------------------------------|

E---10---7---7---3---3h5----5---3---5---7---5---3---|
B---------------------------------------------------|
G---------------------------------------------------|
D---------------------------------------------------|
A---------------------------------------------------|
E---------------------------------------------------|

E---10---7---7---3---3h5---5---3---5---7---5---3----|
B---------------------------------------------------|
G---------------------------------------------------|
D---------------------------------------------------|
A---------------------------------------------------|
E---------------------------------------------------|

E---3-----3-----3----------------3-----------|
B-------3-----3----------0-------------------|
G-----0-----0-------0h2-----0----------------|
D--------------------------------------------|
A--------------------------------------------|
E--------------------------------------------|

Buuut

(really fast strumming)
G                            C
then she tried to kiss me and i said dont bother
G                            C
you know we dont really love one another
G            C            G        C
theres no use burning out this way
G                            C 
oh but then things changed and they were good and pretty
G                            C
she said i love you and it suddenly clicked
G                      C                 G    C               
but she was saying she always wanted me too
D                    C        G C G C
please dont lie to me mary 
D                    C        G C G C
please dont lie to me mary

(someone else can play the main riff over the top of this part)
G C G C G C G C

G                        D               C
oh i said please dont lie it makes me cry in bed
G                        D               C  
oh i said please dont lie it makes me cry in bed
G                        D               C
oh i said please dont lie it makes me cry in bed 
G                   D                    C
Shut your mouth you dont know what you're talking about
G                   D                    C
Shut your mouth you dont know what you're talking about

(someone else can play the main riff over the top of this part)
G C G C G C G C
End on G.

Добавлено: 10.12.2013
Другие материалы по этой песне:
  • Аккорды и текст

Страница создана 10.12.2013
http://primanota.ru/misc-unsigned-bands/noah-and-the-whale-mary-chords.htm
Привет, Гость.
Предлагаем пройти революционный курс по гитаре.
Подарок от PrimaNota.Ru, забирай!