PrimaNota.ru - самый крупный в мире бесплатный архив песенных текстов, аккордов, табулатур и нот


Misc Unsigned Bands - Nothing To Lose - Nothing To Lose - таба, видео

Регистрация Запомнить меня
Войти через:  Facebook Google Twitter Vk Yandex Mail.ru

Misc Unsigned Bands - Nothing To Lose - Nothing To Lose - таба, видео

Печатать
Просмотров: 42
(1st and 2nd verse)

E|-0----------0----------0----------0------------------------|
B|-0----------0----------6----------0------------------------|
G|-9----------2----------6----------2------------------------|
D|-9----------2----------4----------2------------------------|
A|-7----------0----------0----------0------------------------|
E|-0----------0----------0----------0------------------------|

(Chorus) x4
E|-0----------0----------0-|
B|-0----------0----------0-|
G|-6----------4----------2-|
D|-6----------4----------2-|
A|-4----------2----------0-|
E|-0----------0----------0-|

(Bridge)
E|-0-----0-----0-----0-----0-----|-0-----p4h-p4h-p4h-----------|
B|-0-----0-----0-----0-----0-----|-0---------------------------|
G|-9-----8-----11----8-----2-----|-2---------------------------|
D|-9-----9-----9-----9-----2-----|-2---------------------------|
A|-7-----7-----7-----7-----0-----|-0---------------------------|
E|-0-----0-----0-----0-----0-----|-0---------------------------|

So uh if you got any problems or questions hit me up in myspace my e-mail is 
L.C. Prune Baby!!! What is up Guam?!!!

:VERSE:
Well I've had better nights than this
But I'll settle for your kiss
When the morning comes, after a long
Night out on your porch
And the rain it brings
Back memories
Of the late night walks, just you and me
Months of time well spent
With hopes to be
Better than them all

::CHORUS::
So I gave you my all
Just to notice you were gone
And countless weeks have passed
And I still can't let you go
But I gave you my all
Just to notice you were gone
You left me broken down
You cared for me at all

:VERSE2:
Well I've felt better than right now
I'm hoping this will pass somehow
There's no chance to clear,
Unless you are here
Standing by my side
And the clock strikes three
Where are you dear
Your so far away
Yet you feel so near
I'm waiting by the phone
So I can hear your voice

::CHORUS::
So I gave you my all
Just to notice you were gone
And countless weeks have passed
And I still can't let you go
But I gave you my all
Just to notice you were gone
You left me broken without
A care for me at all

So I gave you my all
Just to notice you were gone
And countless weeks have passed
And I still can't let you go
But I gave you my all
Just to notice you were gone
You left me broken without
A care for me at all
Look me into my eyes
And promise me you'll stay
Добавлено: 05.10.2013
Другие материалы по этой песне:
  • Аккорды и текст

Страница создана 05.10.2013
http://primanota.ru/misc-unsigned-bands/nothing-to-lose-nothing-to-lose-chords.htm
Привет, Гость.
Предлагаем пройти революционный курс по гитаре.
Подарок от PrimaNota.Ru, забирай!