PrimaNota.ru - самый крупный в мире бесплатный архив песенных текстов, аккордов, табулатур и нот


Misc Unsigned Bands - Not Quite Rebels - Staring Down - таба

Регистрация Запомнить меня
Войти через:  Facebook Google Twitter Vk Yandex Mail.ru

Misc Unsigned Bands - Not Quite Rebels - Staring Down - таба

Печатать
Просмотров: 39
Gtr I (E A D G B E) - "Staring Down" 
Tabbed by: Ryan Formato
By: Not Quite Rebels

 4/4
  Gtr I
                                     6x
|-----------------|-7----------------||
|-----------------|---7---7---------o||
|-----9-------9---|-----8---8---8----||
|---9---9---9---9-|-----------9---9--||
|-----------------|-----------------o||
|-7-------7-------|------------------||


                                                     3x
|-------------------------|--------------------------||-|
|-------------------------|-12----------------------o||-|
|-------------------------|----13----13--------------||-|
|-------14----------14----|-------14----14----14-----||-|
|----14----14----14----14-|----------------14----14-o||-|
|-12----------12----------|--------------------------||-|


|-----------------|-7---------------|----|
|-----------------|---7---7---------|----|
|-----9-------9---|-----8---8---8---|----|
|---9---9---9---9-|-----------9---9-|----|
|-----------------|-----------------|----|
|-7-------7-------|-----------------|----|


Buildup
|------|
|------|
|------|
|-9----|
|-9----|
|-7----|

Verse 1

|------------------------------||
|-----------------------------o||
|-9-9-6-----9-----9--9--6------||
|-9-9-6-----9--9--9--9--6------||
|-7-6-4-----7--9--7--6--4-----o||
|--------------7---------------||

Chorus
			3x
|-7-------11-----------||
|-7---9---12----11----o||
|-8---9---13----11-----||
|-9---9---13----11-----||
|-9---7---11----9-----o||
|-7--------------------||
               
  B   E   G#m   F#


|-7-------------------||
|-7------------------o||
|-8---11-/--13--------||
|-9---11-/--13---9----||
|-9---9--/--11---9---o||
|-7--------------7----||


Verse 2

|------------------------------||
|-----------------------------o||
|-9-9-6-----9-----9--9--6------||
|-9-9-6-----9--9--9--9--6------||
|-7-6-4-----7--9--7--6--4-----o||
|--------------7---------------||


Chorus
			3x
|-7-------11-----------||
|-7---9---12----11----o||
|-8---9---13----11-----||
|-9---9---13----11-----||
|-9---7---11----9-----o||
|-7--------------------||

|-7-------------------||
|-7------------------o||
|-8---11-/--13--------||
|-9---11-/--13---9----||
|-9---9--/--11---9---o||
|-7--------------7----||


Guitar Solo


|-------------------------------------------------------------------|
|-------------------------------------------------------------------|
|----------------------------------------------------------8--------|
|-------------------------------------8----8-9-8-9-11-9-11----------|
|---------------7----7-9-7-9-11-9-11----11--------------------------|
|-9-7-9-11-9-11---11------------------------------------------------|


|--------------------------------------------------11-12-11-12-14~--|
|-----------------------------------------------12------------------|
|-8h9/11--9p8-9--8-\-4-/-6--8-8h9-11/13\11---11---------------------|
|-------------------------------------------------------------------|
|-------------------------------------------------------------------|
|-------------------------------------------------------------------|


|--14b16r14------14p12p11-12p11----11-------------------------------|
|-----------12------------------12----12----12----------------------|
|----------------------------------------11----11-------------------|
|-------------------------------------------------14-13-------------|
|-------------------------------------------------------------------|
|-------------------------------------------------------------------|


|-------------------------------------------------------------------|
|-------------------------------------------------------------------|
|--------11-13-11---11h13p11\9--9h11p9--9p8----8--------------------|
|--13-14------------------------------------11---11-9--11p9p8-9p8---|
|-----------------------------------------------------------------11|
|-------------------------------------------------------------------|


|-------------------------------------------------------------------|
|-------------------------------------------------------------------|
|-------------------------------------------------------------------|
|-8-----------------------------------------------------------------|
|---11p9-11p9p7-9p7----7--------------------------------------------|
|-------------------11---11p9---------------------------------------|


Breakdown
			
|-7-------11-----------||
|-7---9---12----11----o||
|-8---9---13----11-----||
|-9---9---13----11-----||
|-9---7---11----9-----o||
|-7--------------------||
               
  B   E   G#m   F#

Acapella

|-------11--------||
|-------12---11--o||
|-------13---11---||
|-------13---11---||
|-------11---9---o||
|--------------- -||

Chorus
			3x
|-7-------11-----------||
|-7---9---12----11----o||
|-8---9---13----11-----||
|-9---9---13----11-----||
|-9---7---11----9-----o||
|-7--------------------||

Acoustic Chorus

Chorus
			
|----------------------------------------------||
|----7---------9---------12-----------11-------||
|------8----9----9----13----13-----11----11----||
|-9------9--9------9--13-------13--11-------11-||
|-9---------7---------11-----------9-----------||
|-7--------------------------------------------||

|---------------------------------------------||
|----7---------9---------12------------------o||
|------8----9----9----13----13-----11---------||
|-9------9--9------9--13-------13--11---------||
|-9---------7---------11-----------9---------o||
|-7-------------------------------------------||

Chorus
			3x
|-7-------11-----------||
|-7---9---12----11----o||
|-8---9---13----11-----||
|-9---9---13----11-----||
|-9---7---11----9-----o||
|-7--------------------||

Outro

		     4x   
|---------7---------||---||
|-----------7---7--o||---||
|-----9-------8-----||---||
|---9---9-----------||---||
|------------------o||---||
|-7-----------------||-7-||

Добавлено: 13.02.2014
Другие материалы по этой песне:
  • Аккорды и текст

Страница создана 13.02.2014
http://primanota.ru/misc-unsigned-bands/not-quite-rebels-staring-down-chords.htm
Привет, Гость.
Предлагаем пройти революционный курс по гитаре.
Подарок от PrimaNota.Ru, забирай!