PrimaNota.ru - самый крупный в мире бесплатный архив песенных текстов, аккордов, табулатур и нот


Misc Unsigned Bands - Nikson - Stay With Me - таба

Регистрация Запомнить меня
Войти через:  Facebook Google Twitter Vk Yandex Mail.ru

Misc Unsigned Bands - Nikson - Stay With Me - таба

Печатать
Просмотров: 62
Nikson - Stay With Me
(So Far From Home) [2008]

Hi this is my first tab so its not gonna be perfect.
But i really wanted to play this song so i figured it out and here is my tab for it.

Listen to the song to get the strumming pattern right easily!

tabbed by feco182

email:feco182@hotmail.com

Guitar 1

Intro [play this 2x]

  G#5
e---------------------------------------|
B---------------------------------------|
G---------------------------------------|
D--6--6--6--6--6--6--6--6--6--6--6--6---|
A--6--6--6--6--6--6--6--6--6--6--6--6---|
E--4--4--4--4--4--4--4--4--4--4--4--4---|
      .  .  .  .  .  .     .     .

   Em
e---------------------------------------|
B---------------------------------------|
G---------------------------------------|
D--2--2--2--2--2--2--2--2--2--2--2--2---|
A--2--2--2--2--2--2--2--2--2--2--2--2---|
E--0--0--0--0--0--0--0--0--0--0--0--0---|
      .  .  .  .  .  .     .     .

   B5
e---------------------------------------|
B---------------------------------------|
G--4--4--4--4--4--4--4--4--4--4--4--4---|
D--4--4--4--4--4--4--4--4--4--4--4--4---|
A--2--2--2--2--2--2--2--2--2--2--2--2---|
E---------------------------------------|
      .  .  .  .  .  .     .     .

  F#5
e---------------------------------------|
B---------------------------------------|
G---------------------------------------|
D--4--4--4--4--4--4--4--4--4--4--4--4---|
A--2--2--2--2--2--2--2--2--2--2--4--4---|
E--2--2--2--2--2--2--2--2--2--2--2--2---|
      .  .  .  .  .  .     .     .

play these twice  and the second time play this at the end :

  F#5
e------------------------------------|
B------------------------------------|
G------------------------------------|
D--4--4--4----4--4--4----4--4--4--4--|
A--2--2--2----2--2--2----2--2--2--2--|
E--2--2--2----2--2--2----2--2--2--2--|
   .  .  .    .  .  .    .  .  .  .

And here come the fast part, (IM NOT SURE ABOUT THIS PART!!)

( GO ! )

          alternate picking

play this [14x]

e----------------------------|
B----------------------------|
G---------------11-----------|
D---------9--9-------9-------|
A-----11---------------------|
E----------------------------|

at the end play this again

  F#5
e------------------------------------|
B------------------------------------|
G------------------------------------|
D--4--4--4----4--4--4----4--4--4--4--|
A--2--2--2----2--2--2----2--2--2--2--|
E--2--2--2----2--2--2----2--2--2--2--|
   .  .  .    .  .  .    .  .  .  .

Now play the powerchords from the intro without palm muting:

maybe you have to play them 16 times but i just go for it.

Verse

"Watching TV all day long,"

  G#5
e---------------------------------------|
B---------------------------------------|
G---------------------------------------|
D--6--6--6--6--6--6--6--6--6--6--6--6---|
A--6--6--6--6--6--6--6--6--6--6--6--6---|
E--4--4--4--4--4--4--4--4--4--4--4--4---|

"till the sun's moving all along."

   Em
e---------------------------------------|
B---------------------------------------|
G---------------------------------------|
D--2--2--2--2--2--2--2--2--2--2--2--2---|
A--2--2--2--2--2--2--2--2--2--2--2--2---|
E--0--0--0--0--0--0--0--0--0--0--0--0---|

"Getting dark, the night comes over .."

   B5
e---------------------------------------|
B---------------------------------------|
G--4--4--4--4--4--4--4--4--4--4--4--4---|
D--4--4--4--4--4--4--4--4--4--4--4--4---|
A--2--2--2--2--2--2--2--2--2--2--2--2---|
E---------------------------------------|

"..finally"
  F#5
e---------------------------------------|
B---------------------------------------|
G---------------------------------------|
D--4--4--4--4--4--4--4--4--4--4--4--4---|
A--4--4--4--4--4--4--4--4--4--4--4--4---|
E--2--2--2--2--2--2--2--2--2--2--2--2---|

Play this part twice.

and end with a F#5 power chord

e----
B----
G----
D--4-
A--2-
E--2-

Here comes some octave chords! :) [PRE CHORUS]:

e--------------------|
B--------------------|
G--9-9-9-9-9-9-9-9---|
D--x-x-x-x-x-x-x-x---|
A--7-7-7-7-7-7-7-7---|
E--------------------|

play this neary!! twice

straight to this (always slide this chords):

e-----------------|
B-----------------|
G--11-/--9--/--8--|  [x2] play it twice
D--x--/--x--/--x--|
A--9--/--7--/--6--|
E-----------------|

then:

e--------------------|
B--------------------|
G--8-8-8-8-8-8-8-8---| nearly twice !
D--x-x-x-x-x-x-x-x---|
A--6-6-6-6-6-6-6-6---|
E--------------------|

straight to this

e--------------------|
B--------------------|
G--4--/--6--/--11----| only one strum
D--x--/--x--/--x-----|
A--2--/--4--/--9-----|
E--------------------|


 CHORUS:

same powerchords but now in a new order..

"This is the melody of my heart"

   B5
e---------------------------------------|
B---------------------------------------|
G--4--4--4--4--4--4--4--4--4--4--4--4---|
D--4--4--4--4--4--4--4--4--4--4--4--4---|
A--2--2--2--2--2--2--2--2--2--2--2--2---|
E---------------------------------------|

  G#5
e---------------------------------------|
B---------------------------------------|
G---------------------------------------|
D--6--6--6--6--6--6--6--6--6--6--6--6---|
A--6--6--6--6--6--6--6--6--6--6--6--6---|
E--4--4--4--4--4--4--4--4--4--4--4--4---|

   Em
e---------------------------------------|
B---------------------------------------|
G---------------------------------------|
D--2--2--2--2--2--2--2--2--2--2--2--2---|
A--2--2--2--2--2--2--2--2--2--2--2--2---|
E--0--0--0--0--0--0--0--0--0--0--0--0---|

  F#5
e---------------------------------------|
B---------------------------------------|
G---------------------------------------|
D--4--4--4--4--4--4--4--4--4--4--4--4---|
A--4--4--4--4--4--4--4--4--4--4--4--4---|
E--2--2--2--2--2--2--2--2--2--2--2--2---|

play it twice

now comes the already learnt fast part and the verse.
after it some new stuff the..

[Bridge]

"You are the one, I'm in love with!"

   Em
e-------------------------------------------------|
B-------------------------------------------------|
G-------------------------------------------------|
D--2--2--2--2--2--2--2--2--2--2--2--2--2--2--2--2-|
A--2--2--2--2--2--2--2--2--2--2--2--2--2--2--2--2-|
E--0--0--0--0--0--0--0--0--0--0--0--0--0--0--0--0-|
   .  .  .  .  .  .  .  .  .  .  .  .  .  .  .  .

  G#5
e--------------------------|
B--------------------------|
G--------------------------|
D--6--6--6--6--6--6--6--6--|
A--6--6--6--6--6--6--6--6--|
E--4--4--4--4--4--4--4--4--|
   .  .  .  .  .  .  .  .

  F#5
e--------------------------|
B--------------------------|
G--------------------------|
D--4--4--4--4--4--4--4--4--|
A--4--4--4--4--4--4--4--4--|
E--2--2--2--2--2--2--2--2--|
   .  .  .  .  .  .  .  .

   Em
e-------------------------------------------------|
B-------------------------------------------------|
G-------------------------------------------------|
D--2--2--2--2--2--2--2--2--2--2--2--2--2--2--2--2-|
A--2--2--2--2--2--2--2--2--2--2--2--2--2--2--2--2-|
E--0--0--0--0--0--0--0--0--0--0--0--0--0--0--0--0-|
   .  .  .  .  .  .  .  .  .  .  .  .  .  .  .  .

  G#5
e--------------------|
B--------------------|
G--------------------|
D--6--6--6--6--6--6--|
A--6--6--6--6--6--6--|
E--4--4--4--4--4--4--|
   .  .  .     .

  F#5
e--------------------|
B--------------------|
G--------------------|
D--4--4--4--4--4--4--|
A--4--4--4--4--4--4--|
E--2--2--2--2--2--2--|
   .  .  .     .

play this [3x] time but leave the f#5 out and end with this:

  G#5
e--------------------|
B--------------------|
G--------------------|
D--6--6--6--6--6--6--|
A--6--6--6--6--6--6--|
E--4--4--4--4--4--4--|
   .  .  .     .

now the fast part comes again starting with this !!

e-----------------------------|
B-----------------------------|
G---------------11------------|
D---------9---------9---------|
A-----11----------------------|
E-----------------------------|

the the CHORUS again.

here is the ENDING lick:


e-----------------|
B-----------------|
G--11-/-9-/-8-----|  [x4]
D--x--/-x-/-x-----|
A--9--/-7-/-6-----|
E-----------------|

e-----------------|
B-----------------|
G---8-/-9-/-8-----|  [x2]
D---x-/-x-/-x-----|
A---6 /-7-/-6-----|
E-----------------|

Play the whole thing twice!

then end it with a B5 chord i prefer this cuz its the nearest b5 chord

  B5

e-----
B-----
G-----
D--9--
A--9--
E--7--

Thanks checking out this tab. And if you can make this tab better please do.

check them out : http://www.niksonrocks.com
Добавлено: 07.09.2013
Другие материалы по этой песне:
  • Аккорды и текст

Страница создана 07.09.2013
http://primanota.ru/misc-unsigned-bands/nikson-stay-with-me-chords.htm
Привет, Гость.
Предлагаем пройти революционный курс по гитаре.
Подарок от PrimaNota.Ru, забирай!