PrimaNota.ru - самый крупный в мире бесплатный архив песенных текстов, аккордов, табулатур и нот


Misc Unsigned Bands - Oceans Red - Blood - таба

Регистрация Запомнить меня
Войти через:  Facebook Google Twitter Vk Yandex Mail.ru

Misc Unsigned Bands - Oceans Red - Blood - таба

Печатать
Просмотров: 93
Intro Breakdown


B|---------------------------------------------------------------------------|
F#|--------------------------------------------------------------------------|
D|---------------------------------------------------------------------------|
A|--00----0-----00-----0---0-0-0-----000000-------------*2-------------------|
E|--00----0-----00-----0---0-0-0-----000000----------------------------------|
A|--00~---0~----00~----0~--0-0~0~----000000----------------------------------|

B|---------------------------------------------------------------------------|
F#|--------------------------------------------------------------------------|
D|---------------------------------------------------------------------------|
A|--00--0---00--0---0-0-0-----000000--------------*2-------------------------|
E|--00--0---00--0---0-0-0-----000000-----------------------------------------|
A|--00--0---00--0---0-0-0-----000000-----------------------------------------|



Breakdown


B|---------------------------------------------------------------------------|
F#|--------------------------------------------------------------------------|
D|--------------------------------------------------------------------*2-----|
A|-0--00---00--0000000---------00- 00--00000000------------------------------|
E|-0--00---00--0000000---------00--00--00000000----6~----6~---6~-------------|
A|-1--11---11--1111111—--1b----11--11--11111111-------5~----5~---------------|

Riff


B|---------------------------------------------------------------------------|
F#|-------------------------------4444------------------------------*2-------|
D|--------------------------------7777---------------------------------------|
A|---------4b-3b----------------------------3333--3-3--1111--4b-3b-----------|
E|---------------4--------------------------3333--3-3--1111-------4b---------|
A|--0000--------------0-0-0-0---------------3333--3-3--1111------------------|


OH!

B|---------------------------------------------------------------------------|
F#|--------------------------------------------------------------------------|
D|------------------------------------------------*2-------------------------|
A|---------------333-3-3--1111----4b-3b--------------------------------------|
E|---------5b----333-3-3--1111---------4b------------------------------------|
A|-000-----------333-3-3--1111-----------------------------------------------|


Chorus

B|---------------------------------------------------------------------------|
F#|----------------*8--------------------------------------------------------|
D|---------------------------------------------------------------------------|
A|----3------5------0------7-------------------------------------------------|
E|----1------3------0------5-------------------------------------------------|
A|------------------0--------------------------------------------------------|


B|---------------------------------------------------------------------------|
F#|------*8------------------------------------------------------------------|
D|-----------------------------------------------------------*2--------------|
A|----3------5---------------------------------------------------------------|
E|----1------3---------------------------------------------------------------|
A|----------------0-000-0-00-00-00-00----------------------------------------|




Breakdown


B|----------------------------------------------------------------------------|
F#|---------------------------------------------------------------------------|
D|----------------------------------------------------------------------------|
A|-00--00---000----00---00---00--000----00----------00--0000-00-00--00--------|
E|-00--00---000----00---00---00--000----00----------00--0000-00-00--00--------|
A|-11  11---111----11---11---11--111----00---4b-----00--0000-00-00--00-555888-|



Electronic Break


Breakdown


B|---------------------------------------------------------------------------|
F#|--------------------------------------------------------------------------|
D|---------------------------------------------------------------------------|
A|--00--0---00--0---0-0-0-----000000-------------*2--------------------------|
E|--00--0---00--0---0-0-0-----000000-----------------------------------------|
A|--00--0---00--0---0-0-0-----000000-----------------------------------------|

B|---------------------------------------------------------------------------|
F#|--------------------------------------------------------------------------|
D|---------------------------------------------------------------------------|
A|--00~--0~---00~--0~---0~-0~-0~-----000000----------------------------------|
E|--00~--0~---00~--0~---0~-0~-0~-----000000----------------------------------|
A|--00~--0~---00~--0~---0~-0~-0~-----000000----------------------------------|

B|---------------------------------------------------------------------------|
F#|--------------------------------------------------------------------------|
D|---------------------------------------------------------------------------|
A|--00--0---00--0---0-0-0----------------------------------------------------|
E|--00--0---00--0---0-0-0----------------------------------------------------|
A|--00--0---00--0---0-0-0---555888-------------------------------------------|


Interlude



Move

B|---------------------------------------------------------------------------|
F#|--------------------------------------------------------------------------|
D|---------------------------------------------------------------------------|
A|--------------333-3-3--1111----4b-3b------------*2-------------------------|
E|--------5b----333-3-3--1111---------4b-------------------------------------|
A|-000----------333-3-3--1111------------------------------------------------|



Riff


B|---------------------------------------------------------------------------|
F#|----------------------------------4444-------------------------------*2---|
D|-----------------------------------7777------------------------------------|
A|-----------4b-3b--------------------------3333--3-3--1111------4b-3b-------|
E|------------------4b----------------------3333--3-3--1111-----------4b-----|
A|--0000-------------------0-0-0-0----------3333--3-3--1111------------------|

Breakdown

B|---------------------------------------------------------------------------|
F#|--------------------------------------------------------------------------|
D|---------------------------------------------------------------------------|
A|--00----0-----00-----0---0-0-0-----000000----------------------------------|
E|--00----0-----00-----0---0-0-0-----000000----------------------------------|
A|--00~---0~----00~----0~--0-0~0~----000000----------------------------------|

B|---------------------------------------------------------------------------F#|--|
D|--------------------------------------------------------------------------------|
A|--00--0---00--0---0-0-0-----000000----------------------------------------------|
E|--00--0---00--0---0-0-0-----000000----------------------------------------------|
A|--00--0---00--0---0-0-0-----000000----------------------------------------------|


B|---------------------------------------------------------------------------|
F#|--------------------------------------------------------------------------|
D|---------------------------------------------------------------------------|
A|--00--0---00--0---0-0-0-----000000-----------------------------------------|
E|--00--0---00--0---0-0-0-----000000-----------------------------------------|
A|--00--0---00--0---0-0-0-----000000------555888-----------------------------|



Interlude


Chorus

B|---------------------------------------------------------------------------|
F#|----------------*8--------------------------------------------------------|
D|---------------------------------------------------------------------------|
A|----3------5------0------7-------------------------------------------------|
E|----1------3------0------5-------------------------------------------------|
A|-------------------0-------------------------------------------------------|


B|---------------------------------------------------------------------------|
F#|------*8------------------------------------------------------------------|
D|-----------------------------------------------------------*2--------------|
A|----3------5---------------------------------------------------------------|
E|----1------3---------------------------------------------------------------|
A|----------------0-000-0-00-00-00-00----------------------------------------|


Breakdowns are probably off a bit
Добавлено: 11.07.2013
Другие материалы по этой песне:
  • Аккорды и текст

Страница создана 11.07.2013
http://primanota.ru/misc-unsigned-bands/oceans-red-blood-chords.htm
Привет, Гость.
Предлагаем пройти революционный курс по гитаре.
Подарок от PrimaNota.Ru, забирай!