PrimaNota.ru - самый крупный в мире бесплатный архив песенных текстов, аккордов, табулатур и нот


Misc Unsigned Bands - Nina Romic - Ljubav Se Ne Trzi - таба

Регистрация Запомнить меня
Войти через:  Facebook Google Twitter Vk Yandex Mail.ru

Misc Unsigned Bands - Nina Romic - Ljubav Se Ne Trzi - таба

Печатать
Просмотров: 56
Tabbed by Marino Kumir (adriat1c@hotmail.com)

(CAPO 2)

INTRO
    Em                           Em                                   G               
e||----------------------------|----------------------------||      |----------------------------|
B||---0------0------0------0---|---0------0------0------0---||      |---0------0------0------0---|
G||---0------0------0------0---|---0------0------0------0---||      |---0------0------0------0---|
D||----------------------------|----------------------------|| [x2] |--------0-------------0-----|
A||--------2-------------2-----|--------2-------------2-----||      |----------------------------|
E||-0-------------0------------|-0-------------0------------||      |-3-------------3------------|

   Em                           Em                           G             B7  
e|----------------------------|----------------------------|----------------------------|
B|---0------0------0------0---|---0------0------0------0---|---0------0------0------0---|
G|---0------0------0------0---|---0------0------0------0---|---0------0------2------2---|
D|----------------------------|----------------------------|--------0-------------1-----|
A|--------2-------------2-----|--------2-------------2-----|---------------2------------|
E|-0-------------0------------|-0-------------0------------|-3--------------------------|

    Em                            C                             
e||----------------------------|------------------------------|
B||---0------0------0------0---|-----1------1------1------1---|
G||---0------0------0------0---|-----0------0------0------0---|
D||----------------------------|--------0h2-------------0-----|
A||--------2-------------2-----|--3------h3-----3------p0-----|
E||-0-------------0------------|------------------------------|

   G             B7             Em
e|----------------------------|----------------------------||
B|---0------0------0------0---|---0------0------0------0---||
G|---0------0------2------2---|---0------0------0------0---|| [x2]
D|--------0-------------1-----|----------------------------||
A|---------------2------------|--------2-------------2-----||
E|-3--------------------------|-0-------------0------------||

VERSE

   Em                           Em
e|----------------------------|----------------------------|
B|---0------0------0------0---|---0------0------0------0---|
G|---0------0------0------0---|---0------0------0------0---|
D|----------------------------|----------------------------|
A|--------2-------------2-----|--------2-------------2-----|
E|-0-------------0------------|-0-------------0------------|
                                Ljubav se     ne     trzi  

   Em                           G               
e|----------------------------|----------------------------|
B|---0------0------0------0---|---0------0------0------0---|
G|---0------0------0------0---|---0------0------0------0---|
D|----------------------------|--------0-------------0-----|
A|--------2-------------2-----|----------------------------|
E|-0-------------0------------|-3-------------3------------|
   niti          ne             ku- pu-je

   Em                           Em                           G             B7  
e|----------------------------|----------------------------|----------------------------|
B|---0------0------0------0---|---0------0------0------0---|---0------0------0------0---|
G|---0------0------0------0---|---0------0------0------0---|---0------0------2------2---|
D|----------------------------|----------------------------|--------0-------------1-----|
A|--------2-------------2-----|--------2-------------2-----|---------------2------------|
E|-0-------------0------------|-0-------------0------------|-3--------------------------|
   Ljubav se     ne     trzi    niti          ne             ku- pu-je

    Em                           C                         
e||----------------------------|----------------------------|
B||---0------0------0------0---|---1------1------1------1---|
G||---0------0------0------0---|---0------0------0------0---|
D||----------------------------|--------2-------------2-----|
A||--------2-------------2-----|-3-------------3------------|
E||-0-------------0------------|----------------------------|
   Ko ljubiti    ne     zna     ko ljubiti    ne     zna   

   G             B7             Em
e|----------------------------|----------------------------||
B|---0------0------0------0---|---0------0------0------0---||
G|---0------0------2------2---|---0------0------0------0---|| [x2]
D|--------0-------------1-----|----------------------------||
A|---------------2------------|--------2-------------2-----||
E|-3--------------------------|-0-------------0------------||
   Saj    nek'   se     ne      hapljuje

=================================================================

Intro:
Em Em Em Em G
Em Em Em Em G | B7
Em C  G | B7
Em Em

Em                        G
Ljubav se ne trzi niti ne kupuje
Em                        G   B7
Ljubav se ne trzi niti ne kupuje
Em                 C
Ko ljubiti ne zna, ko ljubiti ne zna
G           B7    Em
Saj nek' se ne hapljuje
Em                 C
Ko ljubiti ne zna, ko ljubiti ne zna
G           B7    Em
Saj nek' se ne hapljuje

Em                           G
Neka nam je ljubav iskrena i prava
Em                           G  B7
Neka nam je ljubav iskrena i prava
Em                C
Srca ju ne spere, srca ju ne spere
G    B7   Em
Mura niti Drava
Em                C
Srca ju ne spere, srca ju ne spere
G    B7   Em
Mura niti Drava

Em                         G
Ljubav ne raspari zbiri ni zandari
Em                         G   B7
Ljubav ne raspari zbiri ni zandari
Em                C
Žbiri ni žandari, zbiri ni zandari
G    B7    Em
Niti puglavari
Em                C
zbiri ni zandari, zbiri ni zandari
G    B7    Em    
Niti puglavari

(Intro)

Em                        G
Ljubav se ne trzi niti ne kupuje
Em                        G   B7
Ljubav se ne trzi niti ne kupuje
Em                 C
Ko ljubiti ne zna, ko ljubiti ne zna
G           B7    Em
Saj nek' se ne hapljuje
Em                 C/
Ko ljubiti ne zna, ko ljubiti ne zna
G           B7    Em
Saj nek' se ne hapljuje
Добавлено: 06.11.2013
Другие материалы по этой песне:
  • Аккорды и текст

Страница создана 06.11.2013
http://primanota.ru/misc-unsigned-bands/nina-romic-ljubav-se-ne-trzi-chords.htm
Привет, Гость.
Предлагаем пройти революционный курс по гитаре.
Подарок от PrimaNota.Ru, забирай!