PrimaNota.ru - самый крупный в мире бесплатный архив песенных текстов, аккордов, табулатур и нот


Misc Unsigned Bands - Musicman1066 - Obscurity - таба

Регистрация Запомнить меня
Войти через:  Facebook Google Twitter Vk Yandex Mail.ru

Misc Unsigned Bands - Musicman1066 - Obscurity - таба

Печатать
Просмотров: 119
Уроки эстрадного вокала в Санкт-Петербурге
Artist: Musicman1066
Song:   Obscurity
Album:  Memories lost
Tuning: Standard D

Tabbed by: Jarand Johnsen
E-mail: jarandj@hotmail.no


Beast song! [NB] ALL RIGHTS, 
TABS AND BELONGINGS TO THIS TAB
BELONGS TO MUSICMAN1066! If you haven't 
heard of him or his songs, check him out. 
He's amazing. 
I've tabbed this song here
because there weren't any normal tabs(not
guitar pro) from 
this song on UG. 

Tuning: The tuning for this song is in Standard D. 
Basically what you do, is to tune all your strings a 
whole step down. If you're new to this kind of tuning, 
or find it hard, I would recommend you to search it up
on either youtube or elsewhere. Youtube have some very
nice videos where they specifically talk about this and
show you how to do it:) 


Feedback is much appreciated!

Intro:(distorted):
d|--------------------------------------------------------------------|
A|--------------------------------------------------------------------|
F|--------------------------------------------------------------------|
C|-2~~~~~~~~~~--------------------------------------------------------|
G|-0~~~~~~~~~~~~------------------------------------------------------|
D|--------------------------------------------------------------------|

(Clean)                                                                  x3
d|-----------------------------------------------------------------------|
A|---------0----------------0------------------0-----------------0-------|
F|-------0---0------------0---0--------------0---0-------------0---0-----|
C|-----7-------7--------3-------3---------10-------10--------5-------5---|
G|---7-----------7----3-----------3----10-------------10---5-----------5-|
D|-5----------------1----------------8-------------------3---------------|

Intro Solo(distorted)                          (*)|(Use your whammy bar)|
d|-----------------------------------------------------------------------|
A|-----------------------------------------------------------------------|
F|-----------------------------------------------------------------------|
C|-/9--9\7--9\5--7\4--4/5~~~~--/9--9\7--9\5--7\4--0b(*)2-----------------|
G|-----------------------------------------------------------------------|
D|-----------------------------------------------------------------------|

(Clean)               |----------> x4 <-----------|
d|------------------------------------------------------------|
A|-0~~---------0-------0~~------------------0-----------------|
F|-0~~-----------0-----0~~--------0-----------0---------------|
C|-5~~------7------7---3~~------5--------7------7-------------|
G|-5~~----7------------3~~----5--------7----------------------|
D|-3~~--5--------------1~~--3--------5------------------------|

(Distorted)                        x3           Last time:
d|----------------------------------|---------------------------------|
A|--------0~~---------------0-------|-------0~~-----------------------|
F|-----------0~~----------0---0-----|----------0~~----------0-------0-|
C|-----7---------7------3-------3---|----7---------7------3-------5---|
G|---7----------------3-----------3-|--7----------------3-------5-----|
D|-5----------------1---------------|5----------------1-------3-------|
                                                                         x2
d|-------------------|----------------------------------------------------|
A|--------0~~-----0~~|--------------------------0------------------0------|
F|-----------0~~--0~~|------------------------0----------------------0----|
C|-----7----------3~~|-2222-----2222--------4-----2222-----2222--------4--|
G|---7------------3~~|-2222-2-2-2222-2-2--3-------2222-2-2-2222-2-2------2|
D|-5--------------1~~|-0000-0-0-0000-0-0----------0000-0-0-0000-0-0-------|
                                        x2
d|--------------------------------------|
A|-------------0~~--------------------0-|
F|-------------0~~------------------0---|
C|-2222--2222--4~~--2222--2222----4-----|
G|-2222--2222--3~~--2222--2222--3-------|
D|-0000--0000-------0000--0000----------|

d|----------------------------------------------------------------|
A|---------0----------------0------------------0------------------|
F|-------0---0------------0---0--------------0---0----------------|
C|-----7-------7--------3-------3---------10-------10-----5555----|
G|---7-----------7----3-----------3----10-------------10--5555----|
D|-5----------------1----------------8--------------------3333----|

Chorus:
Guitar 1.
d|--------------------------------------------------------------------------
A|--------------------------------------------------------------------------
F|--------------------------------------------------------------------------
C|-7777-----3~~---33-----5555-----5~~-555-----7777-3~~-33-----5555-----5555-
G|-7777-----3~~---33-----5555-----5~~-555-----7777-3~~-33-----5555-----5555-
D|-5555-5-1-1~~-1-11-1-3-3333-3-3-3~~-333-3-5-5555-1~~-11-1-3-3333-3-3-3333-
           x2
-----------|
-----------|
-----------|
-5555------|
-5555------|
-3333--15\-|

Chorus:
Guitar 2.
d|-------------------------------------------------------------|
A|-------------------------------------------------------------|
F|--------12--------------14------------12---------------------|
C|-10-0-9---------14-0-10--------10-0-9---------14-0-10-14-----|
G|-----------0-10------------0-7-----------0-10------------0-7-|
D|-------------------------------------------------------------|

d|-------------------|-----------------------------|
A|--------0~~-----0~~|-------0~------------0-------|
F|-----------0~~--0~~|---------0~--------0---0-----|
C|-----7----------3~~|-----7-----7-----3-------3---|
G|---7------------3~~|---7-----------3-----------3-|
D|-5--------------1~~|-5-----------1---------------|

Solo & lead fills:
d|----------------------------------------------------------8------|
A|------------------------------------8-----------------12---------|
F|--X--X--9--7--9p7p5--7p5p4--5~~~~4h5---5-4-2~~--9--7---------9~~-|
C|-X--X------------------------------------------------------------|
G|-----------------------------------------------------------------|
D|-----------------------------------------------------------------|

d|------------------------------------------------------------------8---8~~|
A|-12h13-17-13p12-/24~~-----------------------------------------12-----12~~|
F|----------------------9--7-9p7p5--4---------------------9--7-------------|
C|-------------------------------------5~~-5h7-10-7-5----------------------|
G|----------------------------------------------------7~~------------------|
D|-------------------------------------------------------------------------|

Normal verse again:
Guitar 1.
d|-------------------|----------------------------------------------------|
A|--------0~~-----0~~|--------------------------0------------------0------|
F|-----------0~~--0~~|------------------------0----------------------0----|
C|-----7----------3~~|-2222-----2222--------4-----2222-----2222--------4--|
G|---7------------3~~|-2222-2-2-2222-2-2--3-------2222-2-2-2222-2-2------2|
D|-5--------------1~~|-0000-0-0-0000-0-0----------0000-0-0-0000-0-0-------|

Guitar 2.                                                  x4
d|---------------------------------------------------------|
A|---------------------------------------------------------|
F|---------------------------------------------------------|
C|---------------------------------------------------------|
G|--------------------------10-----------9-----------8-----|
D|-12-7-0-0-0-0-8-7-0-0-0-0----7-0-0-0-0---7-0-0-0-0---7---|

Guitar 3.                        x5                              x5
d|-3-----3-----3-----3-----3-----|-0-----0-----0-----0-----0-----|
A|---7-----7-----7-----7-----7---|---7-----7-----7-----7-----7---|
F|-----4-----4-----4-----4-----4-|-----4-----4-----4-----4-----4-|
C|-------------------------------|-------------------------------|
G|-------------------------------|-------------------------------|
D|-------------------------------|-------------------------------|

Repeat Chorus 

Yup, that's all! 
Добавлено: 02.06.2013
Другие материалы по этой песне:
  • Аккорды и текст

Страница создана 02.06.2013
http://primanota.ru/misc-unsigned-bands/musicman1066-obscurity-chords.htm
Привет, Гость.
Предлагаем пройти революционный курс по гитаре.
Подарок от PrimaNota.Ru, забирай!