PrimaNota.ru - самый крупный в мире бесплатный архив песенных текстов, аккордов, табулатур и нот


Misc Unsigned Bands - My Strange Addiction - Inject The Poison - таба

Регистрация Запомнить меня
Войти через:  Facebook Google Twitter Vk Yandex Mail.ru

Misc Unsigned Bands - My Strange Addiction - Inject The Poison - таба

Печатать
Просмотров: 60
This song can get hard at times, but it is very straight forward, and in
standard tuning. Using a Gibson SG would sound best, because that's all
A.J. Lalonde uses.

h= Hammer-on
p= Pull-off
/= Slide down
\= Slide up
*= Pinch harmonic
^= Fast alternate picking
pm= Palm mute
b= Bend
r= Release bend
~= Let Note Ring


Intro Riff X4:

E|-------------------------------|
B|-------------------------------|
G|-------------------------------|
D|------9------7------9------5/7-|
A|------9------7------9------5/7-|
E|-0-00-7-0-00-5-0-00-7-0-00-3/5-|
   pm...  pm...  pm...  pm...


Main Riff X4:

E|---------------------------------|
B|---------------------------------|
G|---------------------------------|
D|-------------------------------5-|
A|-------------------------------5-|
E|-0000000000-8p7-8p7-0000000000-3-|
   ^^^^^^^^^^         ^^^^^^^^^^
   pm........         pm........


Verse Riff X4:

E|---------------------------------|
B|---------------------------------|
G|---------------------------------|
D|-------------------------------5-|
A|-------------------------------5-|
E|-0000000000-8p7-8p7-0000000000-3-|
   ^^^^^^^^^^         ^^^^^^^^^^
   pm........         pm........


Pre-Chorus X2:

E|-------------------------------|
B|-------------------------------|
G|-------------------------------|
D|------9------7------9------5/7-|
A|------9------7------9------5/7-|
E|-0-00-7-0-00-5-0-00-7-0-00-3/5-|
   pm...  pm...  pm...  pm...



Chorus X4:

E|-------------------|
B|-------------------|
G|-------------------|
D|-------------------|
A|-2-2-5-7-5-2-2-4/5-|
E|-0-0-3-5-3-0-0-2/3-|


The song repeats this format until the end of the 2nd chorus:

Main Riff
Verse Riff
Pre-Chorus
Chorus


Pre-Breakdown X4:

E|---------------------------|
B|---------------------------|
G|---------------------------|
D|---------------------------|
A|-2-2-2-2-5/7\5-2-2-2-2-4/5-|
E|-0-0-0-0-3/5\3-0-0-0-0-2/3-|
   pm.....       pm.....


The is a 5 sec drum solo then this;

Breakdown Riff X4:

E|-------------------------------------------------|
B|-------------------------------------------------|
G|-------------------------------------------------|
D|-----9-----10----7-----7-----9-----10----9-----9-|
A|-----7-----8-----5-----5-----7-----8-----7-----7-|
E|-0-0---0-0---0-0---0-0---0-0---0-0---0-0---0-0---|
   Pm..  pm..  pm..  pm..  pm..  pm..  pm..  pm..

After playing that 4 times, its the solo, just keep playing the breakdown
riff 4 more times.

Stomp Riff (Comes in right after solo is down):

E|-----------------------|
B|-----------------------|
G|-----------------------|
D|-----------------------| Play those 4 chords as if someone is stomping ;)
A|-2--2--2--2~~~~~~~~~~~-|
E|-0--0--0--0~~~~~~~~~~~-|


Clean Riff X4:

      Am        G       F         G
E|------------------------------------|
B|----1-------------------------------|
G|---2-2--------0-------2---------0---|
D|--2---2------0-0-----3-3-------0-0--|
A|-0----------2---2---3---3-----2---2-|
E|-------0-2-3-----0-1-----0-2-3------|


Clean Riff #2 X4:

It is just the chords of the Clean Riff strummed to the rhythm (Am,G,F,G)

then just stumm the chords until the end of the song while the last solo plays.


THANKS FOR LEARNING THIS SONG!

Sincerely: MY STRANGE ADDICTION
Добавлено: 01.11.2013
Другие материалы по этой песне:
  • Аккорды и текст

Страница создана 01.11.2013
http://primanota.ru/misc-unsigned-bands/my-strange-addiction-inject-the-poison-chords.htm
Привет, Гость.
Предлагаем пройти революционный курс по гитаре.
Подарок от PrimaNota.Ru, забирай!