PrimaNota.ru - самый крупный в мире бесплатный архив песенных текстов, аккордов, табулатур и нот


Misc Unsigned Bands - Musicman1066 - The Unseen - таба, видео

Регистрация Запомнить меня
Войти через:  Facebook Google Twitter Vk Yandex Mail.ru

Misc Unsigned Bands - Musicman1066 - The Unseen - таба, видео

Печатать
Просмотров: 143
Уроки эстрадного вокала в Санкт-Петербурге
Artist: Musicman1066
Song:   The Unseen
Album:  Memories lost
Tuning: Standard D


Beast song! [NB] ALL RIGHTS, 
TABS AND BELONGINGS TO THIS TAB
BELONGS TO MUSICMAN1066! If you haven't 
heard of him or his songs, check him out. 
He's amazing. I've tabbed this song here
because there weren't any normal tabs
(not guitar pro tabs) from 
this song on UG. 


d|-------------------------------------------------------------|\
A|-------------------------------------------------------------| \
F|-------------------------------------------------------------|  \
C|---6--------------6--------------6--------------6------------|   \
G|-----6-4-6-7-6-4----6-4-6-7-6-4----6-4-6-7-6-4----6-4-6-7-6-4|    \
D|-4---------------4--------------4--------------4-------------|     \
                                                                       x2 
                                                                  
d|-------------------------------------------------------------|     /
A|-------------------------------------------------------------|    /
F|-------------------------------------------------------------|   /   
C|---6--------------6--------------6--------------6------------|  /
G|-----6-4-6-7-6-4----6-4-6-7-6-4----6-4-6-7-6-4----6-4-6-7-6-4| /
D|-0---------------0--------------0--------------0-------------|/

                                          Last time:
d|-------------------------------------|x8 d|-------|
A|-----9--------------9----------------|   A|-------|
F|-------8-6-8-9-8-6----8-6-8h9p8p6----|   F|-------|
C|--6~--------------6---------------6~-|   C|-6~~~~~|
G|-------------------------------------|   G|-------|
D|-------------------------------------|   D|-------|

d|--------------------------------------------------------------------|
A|--------------------------------------------------------------------|
F|--------------------------------------------------------------------|
C|-------------------------------6------------------------------6-----|
G|---------------------------------6-4----------------------------6-4-|
D|--12/-000-000-000-000-000-000-0------000-000-000-000-000-000-0------|

d|-----------------------------------------------------------------|
A|-----------------------------------------------------------------|
F|-----------------------------------------------------------------|
C|---------------------------6---------------------------------6---|
G|-----------------------------6-4---------------------------4---4-|
D|--444-444-444-444-444-444-4------444-444-444-444-444--4--2-------|

d|------------------------------------------------------------------|
A|------------------------------------------------------------------|
F|------------------------------------------------------------------|
C|---------9--------------------------------8-----------------------|
G|-------6--------------------------------4-------------------------|
D|-0-0-0----0-0-0-000-0-0-0-00-0-0--0-0-0----0-0-0-000-0-0-0-00-0-0-|

d|------------------------------------------------------------------|
A|------------------------------------------------------------------|
F|------------------------------------------------------------------|
C|---------8--------------------------------6----------------6------|
G|-------4--------------------------------2----------------4---4----|
D|-4-4-4----4-4-4-444-4-4-4-44-4-4--4-4-4----4-4-4-444-4-2----------|

d|------------------------------------------------------------------------|
A|------------------------------------------------------------------------|
F|------------------------------------------------------------------------|
C|--9~~~~~~-8~~~~~~--------6---------6---------6----------6---------6-----|
G|--6~~~~~~-4~~~~~~------------6-4-------6-4------6-4---------6-4-----4-6-|
D|-------------------4-4-4---4-----4---4-----4---4----4-4---4-----4-------|
d|--------------|
A|--------------|
F|--------------|
C|---6----------|
G|-------6-4----|
D|-4---4--------| 


d|---------------------------------------------------------------|
A|---------------------------------------------------------------|
F|-/13---------13-------13------11--------8--------8-------------|
C|------13-11-----11-9-----9-8------8-6------6-4-------6-8-9-8-6-|
G|-----------------------------9--9-----9--9-----9---9-----------|
D|----0------0---0----0------------------------------------------|

d|----------------------------------------------------------------|
A|----------------------------------------------------------------|
F|----------------------------------------------------------------|
C|---11-9-8-9-11-9-8---11-9-8-9-9h11p9p8----------------9-8-------|
G|-11----------------11-----------------11~~~~~~~~~~~-------9--2--|
D|-------------------------------------------------------------0--|

d|-------------------------------------|x8 d|-------|
A|-----9--------------9----------------|   A|-------|
F|-------8-6-8-9-8-6----8-6-8h9p8p6----|   F|-------|
C|--6~--------------6---------------6~-|   C|-------|
G|-------------------------------------|   G|-------|
D|-------------------------------------|   D|-0~~~~-|

d|----------------------------------------------------------|
A|----------------------------------------------------------|
F|----------------------------------------------------------|
C|-------------------------6-------------------8------------|
G|---------------------------6-4~----------------4-2--------|
D|-0-00-0-0-0-0-00-0-0-0-0--------0-0-0-00-0-0-------0-0-00-|

d|----------------------------------------------------------|
A|----------------------------------------------------------|
F|----------------------------------------------------------|
C|-------------------------6--------------------------6-----|
G|---------------------------6-4~--------------------4--4---|
D|-4-44-4-4-4-4-44-4-4-4-4--------4-4-444-444-444--2--------|
                           

                            Solo:
d|---------------------------------19-18-16---------------------------|
A|--9999999999999999------------------------17------------------------|
F|--------------------------------------------16p15--15-16-15-----9--9|
C|--6666666666666666-----6-------------------------18--------18p13-13-|
G|---------------------4--4-------------------------------------------|
D|-------------------2------------------------------------------------|

d|-------------------------------------------------------7-12-7--7-12-7|
A|-----------------------------------------------------9--------9------|
F|-----------------11-13~--16-15-13------------------9-----------------|
C|------------9-13------------------14-9-8---------9-------------------|
G|-13-9--9-13------------------------------11-7-11---------------------|
D|-----11--------------------------------------------------------------|

d|---7-16-12--12-16-12--12-19-16--16-19-16--16--11-7---------------|
A|-9--------12--------12--------17--------17---------9-------------|
F|-----------------------------------------------------8-----------|
C|-------------------------------------------------------9---------|
G|---------------------------------------------------------11-6-11-|
D|-----------------------------------------------------------------|

d|-------7-11-7---7-11-7---------------------7-11-7---7-11-7--7-11-7---|
A|-----9--------9--------9-----------------9--------9--------9-------9-|
F|---8---------------------8-------------8-----------------------------|
C|-9-------------------------9---------9-------------------------------|
G|-----------------------------11-6-11---------------------------------|
D|---------------------------------------------------------------------|

d|-7-16-11----11-16-11----11-19-16----16-19-16----16-16-11----11-16-11--11|
A|---------12----------12----------16----------16----------12---------12--|
F|------------------------------------------------------------------------|
C|------------------------------------------------------------------------|
G|------------------------------------------------------------------------|
D|------------------------------------------------------------------------|

d|-------19-18-16----19-18-19-18-16----16-18-19-18-16----16-18-|
A|-17~~~----------19----------------19----------------19-------|
F|-------------------------------------------------------------|
C|-------------------------------------------------------------|
G|-------------------------------------------------------------|
D|-------------------------------------------------------------|

d|-19-18-16----18-16-------16----------16-14-12----14-12------12--------|
A|----------19-------19-17----19-17-16----------16-------16-14--16-14-12|
F|----------------------------------------------------------------------|
C|----------------------------------------------------------------------|
G|----------------------------------------------------------------------|
D|----------------------------------------------------------------------|

d|-11-9-7-11-9-7------11-7-------11-7-------11-7-------11-7-------11-7------|
A|---------------11-9------11-7-------11-7-------11-7-------11-7------11-7--|
F|------------------------------8----------8----------8----------8---------8|
C|--------------------------------------------------------------------------|
G|--------------------------------------------------------------------------|
D|--------------------------------------------------------------------------|

d|-11-7-------11-7-------11-7--------11-7------7----------------------------|
A|------11-7-------11-7-------11-7--------11-7---11-7-11-7---7-----11~~-12b~|
F|-----------8----------8----------8-----------------------8---8------------|
C|---------------------------------------------------------------11---------|
G|--------------------------------------------------------------------------|
D|--------------------------------------------------------------------------|

d|------------------------------------------------------------------------|
A|------------------------------------------------------------------------|
F|------------------------------------------------------------------------|
C|--6~~~----------6~~~----------8~~----------8~~8-8-8-8-8--9-9-9-9-9------|
G|--2~~~-16/------2~~~-16/------6~~--16/-----6~~6-6-6-6-6--6-6-6-6-6------|
D|-------16/-0-0-------16/-0-0--4~~--16/-4-4-4-~4-4-4-4-4--4-4-4-4-4------|





d|------------------------------------------------------------------------|
A|------------------------------------------------------------------------|
F|------------------------------------------------------------------------|
C|--6~~~---------6~~~----------4~~-----------4-4-4-4-4--------------------|
G|--2~~~-16/-----2~~~-16/------6~~--16/------4-4-4-4-4--------------------|
D|-------16/-0-0------16/-0-0--6~~--16/-4-4--6-6-6-6-6--------------------|
Добавлено: 02.12.2013
Другие материалы по этой песне:
  • Аккорды и текст

Страница создана 02.12.2013
http://primanota.ru/misc-unsigned-bands/musicman1066-the-unseen-chords.htm
Привет, Гость.
Предлагаем пройти революционный курс по гитаре.
Подарок от PrimaNota.Ru, забирай!