PrimaNota.ru - самый крупный в мире бесплатный архив песенных текстов, аккордов, табулатур и нот


Misc Unsigned Bands - Matteo Negrin - Lacrime Di Giulietta - таба

Регистрация Запомнить меня
Войти через:  Facebook Google Twitter Vk Yandex Mail.ru

Misc Unsigned Bands - Matteo Negrin - Lacrime Di Giulietta - таба

Печатать
Просмотров: 169
Уроки эстрадного вокала в Санкт-Петербурге
Lacrime di Giulietta - Matteo Negrin

Based off of http://www.youtube.com/watch?v=MAY1UoQYMHk combining both parts into one guitar.

The | marks above each system represent the beat. 
So if it is between two |'s, then it is an eighth note/pick up. Hopefully it isn't 
too hard to follow. 

The :|| represents a repeat. Repeat back to ||:






     |    |    |       |    |    |       |    |    |       |    |    |     
E||-----------------|-----------------|-----------------|------------------|
B||-----------------|-----------------|--------------1--|------------------|
G||-----------------|--------------0--|-----------------|--3---------------|
D||------------3----|--0--------------|--3--------------|------------------|
A||-----------------|-----------------|-----------------|------------------|
E||-----------------|-----------------|-----------------|------------------|

  |    |    |        |     |    |       |     |     |       |     |    |     
------------------|---------------3--|--1----------------|------------------|
---------------1--|--3---------------|--------------3----|--1---------------|
------------3-----|------------------|-------------------|------------------|
------------------|------------------|-------------------|------------------|
------------------|------------------|-------------------|------------------|
------------------|------------------|-------------------|------------------|

  |     |    |       |    |    |        |     |    |        |     |    |     
------------------|-------6----------|-------------6--8--|------------------|
------------------|------------------|-------------------|--6---------------|
-------------3----|--3---------------|-------------------|------------------|
------------------|------------------|-------------------|------------------|
------------------|------------------|-------------------|------------------|
------------------|------------------|-------------------|------------------|

  |     |    |       |    |    |        |     |     |       |     |    |     
------------------|------------3-----|--1----------------|------------------|
------------------|--3---------------|-------------------|------------------|
-------------3-5--|-------3----------|----------------3--|--3---------------|
------------------|------------------|-------------------|------------------|
------------------|------------------|-------------------|------------------|
------------------|------------------|-------------------|------------------|

    |  |    |        |    |    |        |    |    |         |     |    |     
||-------------1--|------------1-----|------------6------|--1---------------|
||----------1-----|--3----1----------|--3----1-----------|------------------|
||.------3--------|--0---------3-----|--0---------7------|--3---------------|
||.---------------|-------3----------|-------3-----------|------------------|
||----------------|------------------|-------------------|------------------|
||----------------|------------------|-------------------|------------------|

  |   |    |        |    |    |        |    |    |         |     |    |     
---------------1--|------------1-----|------------6------|--10--------------|
------------1-----|--3----1----------|--3----1-----------|------------------|
---------3-----3--|--0---------3-----|--0---------7------|--10--------------|
---------0--3-----|-------3----------|-------3-----------|------------------|
------------------|------------------|-------------------|------------------|
------------------|------------------|-------------------|------------------|


  |    |    |        |    |    |        |    |    |         |     |    |     
---------------1--|------------1-----|------------6------|--1---------------|
------------1-----|--3----1----------|--3----1-----------|------------------|
---------3-----3--|--0---------3-----|--0---------7------|--3---------------|
---------0--3-----|-------3----------|-------3-----------|------------------|
------------------|------------------|-------------------|------------------|
------------------|------------------|-------------------|------------------|

  |    |    |        |    |    |        |    |     |        |     |    |     
------------------|--4---------4-----|--3----------3-----|--6---------------|
------------6--4--|--6---------6-----|--6----------6-----|--6---------------|
------------------|------------------|-------------------|------------------|
------------------|------------------|-------------------|------------------|
------------------|------------------|-------------------|------------------|
------------------|------------------|-------------------|------------------|

  |    |    |        |     |    |       |     |    |        |     |    |     
--5---------------|-----1------------|-----3--1----1-----|-10---------------|
--6---------------|--------3---------|-------------1-----|------------------|
------------------|---------------0--|-------------------|------------------|
------------3-----|--0---------------|--3----------------|-8----------------|
------------------|------------------|-------------------|------------------|
------------------|------------------|-------------------|------------------|

  |     |    |       |     |    |       |     |    |        |     |    |     
------------------|-------------3----|--1--3--1-------1--|--6---------------|
---------------1--|--3---------------|----------------3--|------------------|
-------------3----|-----5--3---------|-------------------|--5---------------|
------------------|------------------|-------------------|------------------|
------------------|------------------|-------------------|------------------|
------------------|------------------|-------------------|------------------|

  |     |    |       |     |    |       |     |    |        |     |    |     
------------------|------------------|--15----13---10----|--8-----6---------|
--6---------------|--------11--------|-------------11-13-|--6----------8----|
--5----------3----|--3---------------|-------------------|------------------|
------------------|------------------|-------------------|------------------|
------------------|------------------|-------------------|------------------|
------------------|------------------|-------------------|------------------|

  |     |    |       |     |    |       |     |    |        |     |    |     
-------------1----|--3----------3----|--1-------------1--|--3--------------||
--6-----3------1--|--3----------3----|--1----------------|-----------------||
-------------3----|--------3---------|----------------3--|--3-------------.||
------------------|------------------|-------------------|----------------.||
------------------|------------------|-------------------|-----------------||
------------------|------------------|-------------------|-----------------||

  |     |    |       |     |    |       |     |    |        |     |    |    
------------------|-------------3----|--1----------------|------------------||
---------------1--|--3---------------|-------------------|------------------||
-------------3----|--------3---------|-------------3-----|--3---------------||
------------------|------------------|-------------------|--3---------------||
------------------|------------------|-------------------|--1---------------||
------------------|------------------|-------------------|------------------||
Добавлено: 27.02.2014
Другие материалы по этой песне:
  • Аккорды и текст

Страница создана 27.02.2014
http://primanota.ru/misc-unsigned-bands/matteo-negrin-lacrime-di-giulietta-chords.htm
Привет, Гость.
Предлагаем пройти революционный курс по гитаре.
Подарок от PrimaNota.Ru, забирай!