PrimaNota.ru - самый крупный в мире бесплатный архив песенных текстов, аккордов, табулатур и нот


Misc Unsigned Bands - Mosaic - Slippage - таба

Регистрация Запомнить меня
Войти через:  Facebook Google Twitter Vk Yandex Mail.ru

Misc Unsigned Bands - Mosaic - Slippage - таба

Печатать
Просмотров: 49
-----------------------------------------------------------------------------
                             Slippage - Mosaic
-----------------------------------------------------------------------------
Tabbed by: Chris (redcookies)
E-mail: cambo.csc@gmail.com

Tuning: Drop D

Tempo: 215bpm




e|----------------------|------------------------|-----------------------|
B|----------------------|------------------------|-----------------------|
G|-10p9-------9----9h10-|----9----10----10-------|--------12-------10----|
D|------12-12---12------|-12---12----12----12p10-|-9h10p9----10h12-------|
A|----------------------|------------------------|--------------------10-|
D|----------------------|------------------------|-----------------------|
PM       .  .    .         .    .     .                                .


e|------------------------|------------------------|-----------------------|
B|------------------------|------------------------|-----------------------|
G|----10----9h10-------10-|----9----10----10-------|--------12-------10----|
D|------------------------|------------------12p10-|-7h10p7----10h12----8--|
A|-10----10------10-10----|-10---10----10----------|-----------------------|
D|------------------------|------------------------|-----------------------|
PM  .     .       .  .       .    .     .                               .


e|--------------------|---------------------|-----------------------|
B|--------------------|---------------------|-----------------------|
G|---10-10---9---9h10-|---9---10---10-------|--------12-------10----|
D|-8-------8---8------|-8---8----8----12p10-|-8h10p8----10h12----10-|
A|--------------------|---------------------|-----------------------|
D|--------------------|---------------------|-----------------------|
PM .       .   .        .   .    .                                .


e|------------------------|-----------------------|-------------------------|
B|------------------------|-----------------------|-------------------------|
G|----10-------9-------10-|----9----10----10------|----------12-------10----|
D|-10----10-10---10-10----|-10---10----10----8h10-|-12p10h12----10h12----12-|
A|------------------------|-----------------------|-------------------------|
D|------------------------|-----------------------|-------------------------|
PM  .     .  .    .  .       .    .     .                                 .


e|------------------------|-----------------------|-----------------------|
B|---------------------8h-|-10--------------------|-----------------------|
G|----10----9----12-------|----9h10-------7h10----|-9h10----12p10----9h10-|
D|-12----12---12----12----|---------12s10------12-|------10-------10------|
A|------------------------|-----------------------|-----------------------|
D|------------------------|-----------------------|-----------------------|
PM  .     .    .     .                                    .        .




************************************

| /   slide up
| \   slide down
| h   hammer-on
| p   pull-off
| ~   vibrato
| +   harmonic
| x   Mute note
| b   Bend
| pb  Pre-bend
| br  Bend release
| pbr Pre-bend release
| brb Bend release bend

************************************
Добавлено: 07.02.2014
Другие материалы по этой песне:
  • Аккорды и текст

Страница создана 07.02.2014
http://primanota.ru/misc-unsigned-bands/mosaic-slippage-chords.htm
Привет, Гость.
Предлагаем пройти революционный курс по гитаре.
Подарок от PrimaNota.Ru, забирай!