PrimaNota.ru - самый крупный в мире бесплатный архив песенных текстов, аккордов, табулатур и нот


Misc Unsigned Bands - New Hollow - She Aint You - таба

Регистрация Запомнить меня
Войти через:  Facebook Google Twitter Vk Yandex Mail.ru

Misc Unsigned Bands - New Hollow - She Aint You - таба

Печатать
Просмотров: 39
Intro

Electric 1
Clean
E|-12--14-12--11-12--14-12-|
B|-------------------------|
G|-------------------------|
D|-------------------------|
A|-------------------------|
E|-------------------------|

Electric 2
Clean
E|----------------------------------|
B|------------------------------0---|
G|-----1-----1----1-----1---------1-|
D|---2-----2----------2---2---2-----|
A|------------------4-------2-------|
E|-0-----0------0-------------------|

VERSE (part 1)

Electric 2
Clean
E|---------------------------------|
B|-----------------------------0---|
G|---------------------1---------1-|
D|-----6-----6---6---2---2---2-----|
A|---7-----7-------4-------2-------|
E|-0-----0-----0-------------------|

VERSE (part 2)

Electric 1
Clean
E|--------------------------|
B|------12---------12-------|
G|-15-9----13-11-9----13-14-|
D|--------------------------|
A|--------------------------|
E|--------------------------|

Electric 2
Clean
E|---------------------------------|
B|-----------------------------0---|
G|---------------------1---------1-|
D|-----6-----6---6---2---2---2-----|
A|---7-----7-------4-------2-------|
E|-0-----0-----0-------------------|

PRE-CHORUS

Electric 1-2
Distortion
E|--------|
B|--------|
G|--------|
D|-7----9-|
A|-7-x7-9-|
E|-5----7-|
   *

CHORUS

Electric 1
Distortion
E|------------|
B|------------|
G|----6---9---|
D|-xx-6-7-9-9-|
A|-xx-4-7-7-9-|
E|-xx---5---7-|

Electric 2
Distortion
E|---------|
B|---------|
G|-6-------|
D|-6-7-2-9-|
A|-4-7-2-9-|
E|---5-0-7-|

POST

Electric 1
Clean
E|-11-12--14-12-|
B|--------------|
G|--------------|
D|--------------|
A|--------------|
E|--------------|

Electric 2
Clean
E|---------------------------------|
B|-----------------------------0---|
G|---------------------1---------1-|
D|-----6-----6---6---2---2---2-----|
A|---7-----7-------4-------2-------|
E|-0-----0-----0-------------------|

VERSE (part 1)

Electric 1
(slight muting)
E|-------------------------|
B|-------------------------|
G|-------------------------|
D|-11-9--11-13/14--11-9-11-|
A|-------------------------|
E|-------------------------|

Electric 2
Clean
E|---------------------------------|
B|-----------------------------0---|
G|---------------------1---------1-|
D|-----6-----6---6---2---2---2-----|
A|---7-----7-------4-------2-------|
E|-0-----0-----0-------------------|

VERSE (part 2)

Electric 1
Distortion
E|-------------------------------------------------|
B|-------------------------------------------------|
G|------9-9--6-4------9-9--6-6/8-8/9-----------6-4-|
D|-xxxx-9-9--6-4-xxxx-9-9--6-6/8-8/9--2-2-xxxx-6-4-|
A|-xxxx-7-7--4-2-xxxx-7-7--4-4/6-6/7--2-2-xxxx-4-2-|
E|-xxxx----------xxxx-----------------0-0-xxxx-----|

Electric 2
Clean
E|---------------------------------|
B|-----------------------------0---|
G|---------------------1---------1-|
D|-----6-----6---6---2---2---2-----|
A|---7-----7-------4-------2-------|
E|-0-----0-----0-------------------|

PRE-CHORUS

CHORUS

SOLO

Electric 1

E|---------------------------------------------------------------|
B|-/99999-7------------------------------------------------------|
G|----------9-9/11-9--------------16-14-13--------------13-------|
D|-------------------9--/14141414----------16-16--14-16----16-14-|
A|---------------------------------------------------------------|
E|---------------------------------------------------------------|


----------------------------------------------------------------|
---------------------------------1717171717---------------------|
-1313131313----------------------1616161616-14---------------20-|
-1414141414-16-14-14/16\14----14---------------18-1616161616-16-|
---------------------------14-----------------------------------|
----------------------------------------------------------------|

-12r11r9------12r11r9--------------------------|
---------12-9---------12-9---------------------|
---------------------------11r9r9r9------------|
------------------------------------11-9h11/14-|
-----------------------------------------------|
-----------------------------------------------|

-12r11r9------12r11r9--------------------------|
---------12-9---------12-9---------------------|
---------------------------11r9r9r9------------|
------------------------------------11-9h11/14-|
-----------------------------------------------|
-----------------------------------------------|

---------------------------------------------------------------------|
---------------------------------------------------------------------|
-12bb-12bb-12bb-11r9------9--------9--13131313-13/14-13-11-----------|
---------------------11-9---11-9h11-------------------------14r13r11-|
---------------------------------------------------------------------|
---------------------------------------------------------------------|

Electric 2

E|---------------------- ------------|
B|---------------------- ------------|
G|-6-------9/11/13\11\9- -6----------|
D|-6-7-2-9-x-x--x--x--x- -6-7-2-9-x3-|
A|-4-7-2-9-7/9-/11\9-\7- -4-7-2-9----|
E|---5-0-7-------------- ---5-0-7----|

POST (part 1)

Electric 2
(light mute=*)
E|------------------------------------------|
B|------------------------------------------|
G|------------------------------------------|
D|-14-14-14--14--14-14--14-x3-13--13-13--13-|
A|------------------------------------------|
E|------------------------------------------|
   *  *  *       *  *             *  *


POST (part 2)

Electric 1

E|----------|
B|----------|
G|-13-14-16-|
D|----------|
A|----------|
E|----------|

Electric 2
(light mute=*)
E|------------------------------------------|
B|------------------------------------------|
G|------------------------------------------|
D|-14-14-14--14--14-14--14-x3-13--13-13--13-|
A|------------------------------------------|
E|------------------------------------------|
   *  *  *       *  *             *  *

CHORUS

CHORUS OUTRO

Electric 1

E|-------------------|
B|-------------------|
G|-------------------|
D|-13-14-14/16-13-11-|
A|-x--x--x--x--x---x-|
E|-11-12-12/14-11--9-|

Electric 2
Distortion
E|---------|
B|---------|
G|-6-------|
D|-6-7-2-9-|
A|-4-7-2-9-|
E|---5-0-7-|
Добавлено: 12.12.2013
Другие материалы по этой песне:
  • Аккорды и текст

Страница создана 12.12.2013
http://primanota.ru/misc-unsigned-bands/new-hollow-she-aint-you-chords.htm
Привет, Гость.
Предлагаем пройти революционный курс по гитаре.
Подарок от PrimaNota.Ru, забирай!