PrimaNota.ru - самый крупный в мире бесплатный архив песенных текстов, аккордов, табулатур и нот


Misc Unsigned Bands - Maria Cafra - Awit Ng Pag-ibig - бас-таба

Регистрация Запомнить меня
Войти через:  Facebook Google Twitter Vk Yandex Mail.ru

Misc Unsigned Bands - Maria Cafra - Awit Ng Pag-ibig - бас-таба

Печатать
Просмотров: 33
Intro:

G|-----------|------------|
D|-----------|------------|
A|-----------|-5-4--------|
E|-5---------|-----7-5-3h-| 4x

G|-----------|-----------|-----------|-----------|-----------|
D|-----------|-----------|---9-9-----|-----------|---9-9-----|
A|-----------|-7-77----7-|-7-------7-|-7-77----7-|-7-------7-|
E|-5---------|------7h9--|------7h9--|------7h9--|------7h9--|

Verse I:

G|-----------|-----------|-----------|-----------|
D|-----------|---9-9-----|-----------|---9-9-----|
A|-7-77----7-|-7-------7-|-7-77----7-|-7-------7-|
E|------7h9--|------7h9--|------7h9--|------7h9--| 4x

Verse II:

G|-----------|-----------|-----------|-----------|
D|-----------|---9-9-----|-----------|---9-9-----|
A|-7-77----7-|-7-------7-|-7-77----7-|-7-------7-|
E|------7h9--|------7h9--|------7h9--|------7h9--|

G|-----------|-----------|-----------|---------|
D|-----------|---9-9-----|-----------|---9-----|
A|-7-77----7-|-7-------7-|-7-77----7-|-7---765-|
E|------7h9--|------7h9--|------7h9--|---------|

Chorus:

G|---3311----|-----------|
D|-------31--|-----------|
A|-4-------4-|---112242--|
E|-----------|-22------4-| 3x

G|---3311----|-----------|
D|-------31--|------4----|
A|-4-------4-|-----------|
E|-----------|-2---------|

G|---3311----|-----------|
D|-------31--|-----------|
A|-4-------4-|---112242--|
E|-----------|-22------4-| 3x

G|---3311----|-----------|
D|-------31--|------4----|
A|-4-------4-|-----------|
E|-----------|-2---------|

Adlib:

G|-----------|------------|
D|-----------|------------|
A|-----------|-5-4--------|
E|-5---------|-----7-5-3h-| 4x

G|-----------|
D|-----------|
A|-----------|
E|-5---------|

G|-----------------|--------|
D|-----------------|--------|
A|-7-x5-7---5------|-7-x5-7-|
E|------------x7-5-|--------| 3x

G|-----------------|-----------|
D|-----------------|-----------|
A|-7-x5-7---5------|---------5-|
E|------------x7-5-|-x3x5x757--|

G|-----------|-----------|-----------|-----------|
D|-----------|---9-9-----|-----------|---9-9-----|
A|-7-77----7-|-7-------7-|-7-77----7-|-7-------7-|
E|------7h9--|------7h9--|------7h9--|------7h9--|

Verse III: Repeat Verse II pattern

Chorus: Repeat Chorus pattern

Outro:

G|---3311----|-----------|
D|-------31--|-----------|
A|-4-------4-|---112242--|
E|-----------|-22------4-| 3x

G|---3311----|-----------|
D|-------31--|------4----|
A|-4-------4-|-----------|
E|-----------|-2---------| to fade
Добавлено: 23.08.2013
Другие материалы по этой песне:
  • Аккорды и текст

Страница создана 23.08.2013
http://primanota.ru/misc-unsigned-bands/maria-cafra-awit-ng-pag-ibig-chords.htm
Привет, Гость.
Предлагаем пройти революционный курс по гитаре.
Подарок от PrimaNota.Ru, забирай!