PrimaNota.ru - самый крупный в мире бесплатный архив песенных текстов, аккордов, табулатур и нот


Misc Unsigned Bands - Mastadon - Iron Tusk - бас-таба

Регистрация Запомнить меня
Войти через:  Facebook Google Twitter Vk Yandex Mail.ru

Misc Unsigned Bands - Mastadon - Iron Tusk - бас-таба

Печатать
Просмотров: 41
Mastadon - Iron Tusk

Intro x4
F|-------------------------|-------------------------|
C|-------------------------|-------------------------|
G|-------------------------|-------------------------|
C|-0-0-0-9-9-9-0-0-0-9-9-9-|-7-10107---7-5~--5h7p4---|

Verse
F|-------------------------|-------------------------|
C|*------------------------|-------------------------|
G|*------------------2-0-2-|-------------3-3-3-2-2-2-|
C|-0-0-0-0-0-0-0-0-0-------|-0-0-0-0-0-0-------------|
                                                rpt x2
F|-------------------------|-------------------------|
C|-------------------------|------------------------*|
G|-------------------2-0-0-|-0-0-0-3-3-3/8-8-8-7-7\-*|
C|-0-0-0-0-0-0-0-0-0-------|-------------------------|

F|-------------------------|-------------------------|
C|-------------8---7-------|-------------------------|
G|-0-0-0-3-3-3/--------8-7-|-0-0-0-3-3-3/8-8-8-7-7\--|
C|-------------------------|-------------------------|

F|-------------------------|
C|-------------8---7-------|
G|-0-0-0-3-3-3/--------8-7-|
C|-------------------------|

Intro x4
Verse x1
Pre-Bridge x2
F|-------------------------|-------------------------|
C|-------------------------|-------------------------|
G|-------------------------|-------------------------|
C|-1-0-0-2-1-0-1-0-0-2-1-0-|-1-0-0-3-3-3-0-0-0-3-3-3-|

F|-------------------------|-------------------------|
C|-------------------------|-------------------------|
G|-------------------------|-------------------------|
C|-1-0-0-2-1-0-1-0-0-2-1-0-|-1-0-0-5-5-5-0-0-0-5-5-5-|

Bridge x2
F|-------------------------|-------------------------|
C|-------------------------|-------------------------|
G|-0~----------7~----------|(7)----------------------|
C|-------------------------|-------------------------|

F|-------------------------|-------------------------|
C|-------------------------|-------------------------|
G|-------------8-----5-----|-5-----5h6-5-3~----------|
C|-------------------------|-------------------------|

F|-------------------------|-------------------------|
C|-------------------------|-------------------------|
G|-0~----------7~----------|(7)----------------------|
C|-------------------------|-------------------------|

F|-------------------------|-------------------------|
C|-------------------------|-------------------------|
G|-------------8-----5-----|-5-----5h6-5p3~----5-----|
C|-------------------------|-------------------------|

F|-------------------------|
C|-------------------------|
G|-2-----2-----2h3-2p1~----|
C|-------------------------|

Pre-Bridge x2
Breakdown x2
F|-------------------------|-------------------------|
C|-------------------------|-------------------------|
G|-------------------------|-------8-8-8-------8-8-8-|
C|-9-9-9-0-0-0-9-9-9-0-0-0-|-0-0-0-------0-0-0-------|

F|-------------------------|-------------------------|
C|-------------------------|-------------------------|
G|-------------------------|-------101010------101010|
C|-9-9-9-0-0-0-9-9-9-0-0-0-|-0-0-0-------0-0-0-------|

Intro x4
Outro
F|-------------------------|
C|-------------------------|
G|-------------------------|
C|-0-0-0-0-0-0-0-0-0-9-7-9-|

Tabbed By Ryan Wakerell
Добавлено: 21.01.2014
Другие материалы по этой песне:
  • Аккорды и текст

Страница создана 21.01.2014
http://primanota.ru/misc-unsigned-bands/mastadon-iron-tusk-chords.htm
Привет, Гость.
Предлагаем пройти революционный курс по гитаре.
Подарок от PrimaNota.Ru, забирай!