PrimaNota.ru - самый крупный в мире бесплатный архив песенных текстов, аккордов, табулатур и нот


Misc Unsigned Bands - Matthew Hawkins - The Jazz One - бас-таба

Регистрация Запомнить меня
Войти через:  Facebook Google Twitter Vk Yandex Mail.ru

Misc Unsigned Bands - Matthew Hawkins - The Jazz One - бас-таба

Печатать
Просмотров: 46
G----------------------------------------------79-79--------|
D----------------79-79-----------7-7-------7-7-------7-7----|
A-7-7-------7-7--------7-7-----------79-79---------------5--|
E-----79-79----------------79-79----------------------------|

G-----------------------------------------------------------|
D-------------------------2222--5-4-2222--------------------|
A--5-4-2222--5-4-2222-5-4----------------5-4-2222--5-4-2222-|
E-----------------------------------------------------------|

G----------------------------------------------79-79--------|
D----------------79-79-----------7-7-------7-7-------7-7----|
A-7-7--------7-7-------7-7-----------79-79---------------5--|
E-----79-79----------------79-79----------------------------|

G-1111--2222--5555-------------------------------------------|
D------------------1111--2222--5555--7777~-------------------|
A-------------------------------------------5555--2222--1111-|
E------------------------------------------------------------|

Yes, that's it. Simple, pleasant, and soothing jazz. I just
started persuing the role of an active musician, and this is
my first written song. It's farely simple and fun to play.
So, yeah, have fun playing my song, Jazz One, and please mention
my name when you play this in front of someone. I'm trying to
get my name out there. Thank you all!
Добавлено: 08.12.2013
Другие материалы по этой песне:
  • Аккорды и текст

Страница создана 08.12.2013
http://primanota.ru/misc-unsigned-bands/matthew-hawkins-the-jazz-one-chords.htm
Привет, Гость.
Предлагаем пройти революционный курс по гитаре.
Подарок от PrimaNota.Ru, забирай!