PrimaNota.ru - самый крупный в мире бесплатный архив песенных текстов, аккордов, табулатур и нот


Misc Unsigned Bands - Love Hina - Warmth - таба

Регистрация Запомнить меня
Войти через:  Facebook Google Twitter Vk Yandex Mail.ru

Misc Unsigned Bands - Love Hina - Warmth - таба

Печатать
Просмотров: 33
                              Love Hina - Warmth                                


Track 1
                                                                      
E||-----------0-----------|--------------0h-3--|--0-------------0----|
B||--3-----3--3-----------|--------------1-----|---------3-----------|
G||-----0------------0----|--------------------|---------------------|
D||-----------------------|--------------------|---------------------|
A||--3--------------------|--------------------|--0------------------|
E||-----------------------|--------------------|---------------------|


                                                                     
-----------------------|-----------0-----------|--------------0h-3--|
------------0h1p0------|--3-----3--3-----------|--------------1-----|
------------------0----|-----0------------0----|--------------------|
-----------------------|-----------------------|--------------------|
-----------------------|--3--------------------|--------------------|
-----------------------|-----------------------|--------------------|


                                                                         
--0---------------0----|------------------------|--3-----3--1-----------|
--------1--3-----------|------------------------|-----------1-----------|
-----2-----------------|------------------------|-----2------------2----|
-----------------------|------------0-2-0----0--|--3--------------------|
--0--------------------|------------------3-----|-----------------------|
-----------------------|------------------------|-----------------------|


                                                                      
-----------3p-1-------|--1--------1----------|-------1-----0--1------|
-----------1-----1----|--------1-------------|----1-----1------------|
--------2-------------|-----2----------------|-----------------------|
----------------------|--0-------------------|-----------------------|
----------------------|----------------------|-----------------------|
----------------------|----------------------|-----------------------|


                                                 G                   
--3--------1-----------|-----------3p-1-------|--3------------5--3--|
--------1--------------|-----------1-----1----|--0------------5--3--|
-----2------------2----|--------2-------------|--0------------------|
--3--------------------|----------------------|--0------------------|
-----------------------|----------------------|--2------------------|
-----------------------|----------------------|--3------------------|


                                                                        
-------------------------|-------------------|--3--------3-------8--8--|
-------3-----1-----0h-1--|-------------------|-------------------------|
----0-----0-----0--------|--0----------------|-----4--5-------4/-9--9--|
-------------------------|-------------------|-------------------------|
-------------------------|-------------------|-------------------------|
-------------------------|-------------------|--3----------------------|


                                                                               
--7----8/-3------0----|--3------3----------|------1--------------|------------|
-----------------1----|--------------------|---------1-----------|------------|
--7----9/-4-----------|--------------------|--------------2------|------------|
----------------------|--3-----------------|---------------------|------3--0--|
--0-------------------|--------------------|---------------------|------------|
----------------------|--------------------|---------------------|------------|


                                                                          
--3--------3-------8--8--|--7----8/-3------0----|--3------3------8-5-7-3-|
-------------------------|-----------------1----|------------------------|
-----4--5-------4/-9--9--|--7----9/-4-----------|------------------------|
-------------------------|----------------------|--3---------------------|
-------------------------|--0-------------------|------------------------|
--3----------------------|----------------------|------------------------|


                                                                              
--5-1-3-0-1---0-------------|--3--------3-------8--8--|--7----8/-3------0----|
------------3---1-3/---0----|-------------------------|-----------------1----|
----------------------------|-----4--5-------4--9--9--|--7----9/-4-----------|
----------------------------|-------------------------|----------------------|
----------------------------|-------------------------|--0-------------------|
----------------------------|--3----------------------|----------------------|


                                                         
--3------3--------------|---|---------------------------|
--------------1p-0----0-|---|--1------------------------|
-------------------2----|---|---------0-2-0----0--------|
--3---------------------|---|---------------3-----2--3--|
------------------------|---|---------------------------|
------------------------|---|---------------------------|


                                                                            
-----------0----------8--|--7----8---10-----8----|--3--------3----------3--|
-----------1-------------|-----------------------|-----1p-0-------1p-0-----|
--------2----------------|-----------------------|-------------------------|
-----2----------2/-7-----|-----------------------|--3----------------------|
--0----------------------|--7--------------------|-------------------------|
-------------------------|-----------------------|-------------------------|


                       
----------3----------||
----1p-0-------------||
---------------------||
---------------------||
---------------------||
---------------------||


Добавлено: 14.09.2013
Другие материалы по этой песне:
  • Аккорды и текст

Страница создана 14.09.2013
http://primanota.ru/misc-unsigned-bands/love-hina-warmth-chords.htm
Привет, Гость.
Предлагаем пройти революционный курс по гитаре.
Подарок от PrimaNota.Ru, забирай!