PrimaNota.ru - самый крупный в мире бесплатный архив песенных текстов, аккордов, табулатур и нот


Misc Unsigned Bands - Love Me Sexy - Sour Doe - таба

Регистрация Запомнить меня
Войти через:  Facebook Google Twitter Vk Yandex Mail.ru

Misc Unsigned Bands - Love Me Sexy - Sour Doe - таба

Печатать
Просмотров: 54
this goes out to anyone that has done this to anyone, and if you havn't we  are
going to tell you how its done

    lead guitar/back up vocals:Joey (guitar I)
    rythem guitar/lead vocals:Devan (guitar II)

tuning:  
      E.A.D.G.B.E
song title======== sour doe
by, "love me sexy" (and yes, we know that is off of a movie)

intro:  guitar I
  PM..................................
|---------|--------|---------|--------||X2
|---------|--------|---------|--------||
|---------|--------|---------|--------||
|---------|--------|---------|--------||
|-22222222|22222222|-55555555|-777-555||
|-00000000|00000000|-33333333|-555-333||

verses:  guitar I
|---------|--------|-----------|----------||X3
|---------|--------|-----------|----------||
|---------|--------|-----------|----------||
|---------|--------|-----------|----------||
|-22222222|22222222|-xx55555555|-xx777-555||
|-00000000|00000000|-xx33333333|-xx555-333||

Da Hook:  guitar I & guitar II
|-----------|---------------|----------|
|-----------|---------------|----------|
|-----------|---------------|----------|
|--5----5---|--5----5-------|-5----5---|
|--3----3--5|--3----3--5--7-|-3----3--5|
|----------3|----------3--5-|---------3|

|-----------|---------------|----------|---------------------|X1 
|-----------|---------------|----------|---------------------| 
|--5----5---|--5----5-------|-5----5---|---------------------| 
|--5----5--5|--5----5--5--7-|-5----5--5|---------------------| 
|--3----3--5|--3----3--5--7-|-3----3--5|---\\\\\\\\\\\\\\\\\-| 
|----------3|----------3--5-|---------3|---\\\\\\\\\\\\\\\\\-|

verse:  guitar I
|---------|--------|-----------|----------||X3
|---------|--------|-----------|----------||
|---------|--------|-----------|----------||
|---------|--------|-----------|----------||
|-22222222|22222222|-xx55555555|-xx777-555||
|-00000000|00000000|-xx33333333|-xx555-333||

Da Hook:  guitar I & guitar II
|-----------|---------------|----------|
|-----------|---------------|----------|
|-----------|---------------|----------|
|--5----5---|--5----5-------|-5----5---|
|--3----3--5|--3----3--5--7-|-3----3--5|
|----------3|----------3--5-|---------3|

|-----------|---------------|----------|---------------------|X1 
|-----------|---------------|----------|---------------------| 
|--5----5---|--5----5-------|-5----5---|---------------------| 
|--5----5--5|--5----5--5--7-|-5----5--5|---------------------| 
|--3----3--5|--3----3--5--7-|-3----3--5|---\\\\\\\\\\\\\\\\\-| 
|----------3|----------3--5-|---------3|---\\\\\\\\\\\\\\\\\-|

verse:  guitar I
|---------|--------|-----------|----------||X3
|---------|--------|-----------|----------||
|---------|--------|-----------|----------||
|---------|--------|-----------|----------||
|-22222222|22222222|-xx55555555|-xx777-555||
|-00000000|00000000|-xx33333333|-xx555-333||

Da Hook: guitar I & guitar II
|-----------|---------------|----------|
|-----------|---------------|----------|
|-----------|---------------|----------|
|--5----5---|--5----5-------|-5----5---|
|--3----3--5|--3----3--5--7-|-3----3--5|
|----------3|----------3--5-|---------3|

|-----------|---------------|----------|---------------------||X1 
|-----------|---------------|----------|---------------------||
|--5----5---|--5----5-------|-5----5---|---------------------||
|--5----5--5|--5----5--5--7-|-5----5--5|---------------------||
|--3----3--5|--3----3--5--7-|-3----3--5|---\\\\\\\\\\\\\\\\\-||
|----------3|----------3--5-|---------3|---\\\\\\\\\\\\\\\\\-||

Break down: guitar I & guitar II
 PM..........................................
|--------------------------------------------|X1
|--------------------------------------------|
|--------------------------------------------|
|--------------------------------------------|
|-0-0--0-0--0-0--0-0--0-0--0-0--0-0--0-0--0-0|
|-0-0--0-0--0-0--0-0--0-0--0-0--0-0--0-0--0-0|
  Slightly Pm................................
|--------------------------------------------|X1
|--------------------------------------------|
|--------------------------------------------|
|--------------------------------------------|
|-0-0--0-0--0-0--0-0--0-0--0-0--0-0--0-0--0-0|
|-0-0--0-0--0-0--0-0--0-0--0-0--0-0--0-0--0-0|

Super double guitar break down:  guitar I & guitar II
|-------------------------------------------|
|-------------------------------------------|
|-------------------------------------------|
|---------777--------999--------555---------|
|--00-0-0-555-00-0-0-777-00-0-0-333-7777-9-7|
|--00-0-0-----00-0-0-----00-0-0-----5555-7-5|

|-------------------------------------------||X2
|-------------------------------------------||
|-------------------------------------------||
|---------777--------999--------555---------||
|--00-0-0-555-00-0-0-777-00-0-0-333-7777-9-9||
|--00-0-0-----00-0-0-----00-0-0-----5555-7-7||

the greatest ending: guitar I & guitar II
|--------------------------------------------10|X1
|--------------------------------------------10|
|------------------------------121212-121212-10|
|--141414-141414-121212-121212-101010-101010-10|
|--121212-121212-101010-101010-----------------|
|----------------------------------------------|

|----------------------|----------------------|----------------------||X1
|----------------------|----------------121212|----------------121212||
|----------------121212|----------------101010|----------------101010||
|--141414-121212-101010|--141414-121212-------|--141414-121212-------||
|--121212-101010-------|--121212-101010-------|--121212-101010-------||
|----------------------|----------------------|----------------------||

|------------------------------------------------------------------10~||X1
|------------------------------------------------------------------10~||
|---------------------------------------------121212-121212-121212-10~||
|--141414-141414-141414--121212-121212-121212-101010-101010-101010-10~||
|--121212-121212-121212--101010-101010-101010-------------------------||
|---------------------------------------------------------------------||

and that is how you sour doe by "love me sexy"

we will post up the lyrics in a little
Добавлено: 17.01.2014
Другие материалы по этой песне:
  • Аккорды и текст

Страница создана 17.01.2014
http://primanota.ru/misc-unsigned-bands/love-me-sexy-sour-doe-chords.htm
Привет, Гость.
Предлагаем пройти революционный курс по гитаре.
Подарок от PrimaNota.Ru, забирай!