PrimaNota.ru - самый крупный в мире бесплатный архив песенных текстов, аккордов, табулатур и нот


Misc Unsigned Bands - Lycanthropy - Solo Song - таба

Регистрация Запомнить меня
Войти через:  Facebook Google Twitter Vk Yandex Mail.ru

Misc Unsigned Bands - Lycanthropy - Solo Song - таба

Печатать
Просмотров: 48
----------------------------------------------------------------------------
                             Solo Song - Lycanthropy
----------------------------------------------------------------------------
Tabbed by:Lycanthropy
Email:lycanthropy_88@msn.com

Tuning:STANDARD

                                 Jack's Part 1:
   
e|-------------------------------------------------------------------------|
B|--------------------------------------------------8h10t12p10p8h10t12-14*-|
G|-------------------------------------------------------------------------|
D|------------------------8*-8p6-------8*-8p6------------------------------|
A|-00005~~~-00005~~~-6~~~~------8p6~~~~------8p6~~~~-----------------------|
E|-22223~~~-22223~~~-------------------------------------------------------|
PM:....     ....
e|----------------------------------------------------------------------|
B|-8h10t12p10p8h10t12p10p8h10t12p10p8h10t12p10p8h10t12-14b-14b-14*~~~~--|
G|----------------------------------------------------------------------|
D|----------------------------------------------------------------------|
A|----------------------------------------------------------------------|
E|----------------------------------------------------------------------|

e|----------------556655----------------------------------------------|
B|-------------234------432-------------------------------------------|
G|----------235------------532----------------------------------------|
D|-------234------------------432---------------18~~--------18b~~~----|
A|----234------------------------432------15--17------15--17----------|
E|-234------------------------------432/15--16------15--16------------|
 W====================================W                            

                                 Zach's Part 1:  
e|-22p20-----19-17-15------------------------------------------------------|
B|------20h24--------23b~~~~~----------------------------------------------|
G|----------------------------------16--------18--------20-----------------|
D|-----------------------------12-14--14-12-14--14-12-14--14-12-14~~~~~~~~-|
A|-------------------------------------------------------------------------|
E|-------------------------------------------------------------------------|

e|--------------------------20h24b^-----------22Trem~~~~~~~|
B|---------------------19h21-------------------------------|
G|----------------18h20---------------15+++++--------------|
D|-----------17h19--------------------13+++++--------------|
A|------16h18----------------------------------------------|
E|-15h17---------------------------------------------------|

                                 Jack's Part 2:
e|--20b-22-22-22-22-22-22-23-23-23-23-23-23-24-24-24-24-24-24-----------|
B|-----------------------------------------------------------24---------|
G|-------------------------------------------------------------24-------|
D|---------------------------------------------------------------24-----|
A|-----------------------------------------------------------------24---|
E|-------------------------------------------------------------------24-|

e|-4h6t8p6p4h6t8p6p4h6t8p6p4h6t8p6p4h6t8p6p4h6t8p6p4h6t8p6p4h6t8~~~~-------|
B|-------------------------------------------------------------------------|
G|-------------------------------------------------------------------------|
D|-------------------------------------------------------------------------|
A|-------------------------------------------------------------------------|
E|-------------------------------------------------------------------------|

e|-15--------------------------------------------------------------15-----|
B|---13----------------18---------------------20----------------------24--|
G|-------------------16--16---13------------18--18--15-----------17-------|
D|-----12--------11--------13-----------13--------15-----------20---------|
A|-------14--------13-----------14--------15----------16-----19-----------|
E|----------11[*]------------------13[*]----------------15[*]-------------|

                               Zach's Part 2:
e|--14-------14--------15------11h12h13h14p13p12p11-18[*]18[*]18[*]-|
B|----h15------h15-------h16----------------------------------------|
G|-------h16------h16~~-----h17-------------------------------------|
D|------------------------------------------------------------------|
A|------------------------------------------------------------------|
E|------------------------------------------------------------------|

e|-12///\\\///\\\1----0-1----0-2----0/14t16p14t17++++++++--------|
B|----------------2------2------3-----14t15p14t16++++++++--------|
G|-----------------3------3------4-----------------------\-------|
D|------------------4------4------5------------------------\-----|
A|-------------------5------5------6-------------------------\---|
E|--------------------6------6------7/-------------------------\-|

e|-3/-24b^24b^24b^24b^24b^-17--------------18[*]-|
B|---------------------------15----------17------|
G|-----------------------------13------17--------|
D|-------------------------------24--17----------|
A|---------------------------------14------------|
E|-----------------------------------------------|

e|------------------------------9*-|
B|---------------------------9-7---|
G|------------------------7-8------|x2
D|---------------------9-7---------|
A|------------------7-8------------|
E|-0-0-0-0-0-000000----------------|

| /  Slide Up
| \  Slide Down
| h  Hammer-on
| p  Pull-off
| ~  Vibrato
| *  Harmonic
| x  Mute note 
| t  Tap
| b  Bend
| b^ Bend Up
| W= Wah Effect
| +  Delay(# of +'s is how many delays there are)
| [*] Pinch Harmonic
============================================================================
Добавлено: 14.02.2014
Другие материалы по этой песне:
  • Аккорды и текст

Страница создана 14.02.2014
http://primanota.ru/misc-unsigned-bands/lycanthropy-solo-song-chords.htm
Привет, Гость.
Предлагаем пройти революционный курс по гитаре.
Подарок от PrimaNota.Ru, забирай!