PrimaNota.ru - самый крупный в мире бесплатный архив песенных текстов, аккордов, табулатур и нот


Misc Unsigned Bands - Iration - Falling - таба

Регистрация Запомнить меня
Войти через:  Facebook Google Twitter Vk Yandex Mail.ru

Misc Unsigned Bands - Iration - Falling - таба

Печатать
Просмотров: 37
-------------------------------------------------------------------------------
                             Falling- Iration
-------------------------------------------------------------------------------
Tabbed by:chris7xx

Tuning:EADGBE

  Intro/Verse
e|-----------3-3---------------7-10~-------------------------------------------|
B|-5-5-------3-3------7-7------8-8~--------------------------------------------|
G|-5-5-------4-4------7-7------9-9~--------------------------------------------|
D|-5-5-------5-5------7-7------9-9~--------------------------------------------|
A|-3-3-------5-5------5-5------7-7~--------------------------------------------|
E|-----------3-3---------------------------------------------------------------|

  Chorus
e|-----------3------------------7------------------------------------------------|
B|--5--------3---------7--------8------------------------------------------------|
G|--5-(x4)---4-(x4)----7-(x4)---9-(x4)-------------------------------------------|
D|--5--------5---------7--------9------------------------------------------------|
A|--3--------5---------5--------7------------------------------------------------|
E|-----------3-------------------------------------------------------------------|

Rhythm is easy to figure out. just listen to the song.


                 www.myspace.com/iration
Добавлено: 25.09.2013
Другие материалы по этой песне:
  • Аккорды и текст

Страница создана 25.09.2013
http://primanota.ru/misc-unsigned-bands/iration-falling-chords.htm
Привет, Гость.
Предлагаем пройти революционный курс по гитаре.
Подарок от PrimaNota.Ru, забирай!