PrimaNota.ru - самый крупный в мире бесплатный архив песенных текстов, аккордов, табулатур и нот


Misc Unsigned Bands - Irritation Overload - Mini Malmsteen - таба

Регистрация Запомнить меня
Войти через:  Facebook Google Twitter Vk Yandex Mail.ru

Misc Unsigned Bands - Irritation Overload - Mini Malmsteen - таба

Печатать
Просмотров: 42
Fun solo, tuned in drop-d flat (low to high: Db Ab Db Gb Bb Eb)


|-13-12-10--13-12-13-12-10------10-12-13-17-13-12-10----------------|
|---------11--------------11-11----------------------11-14-13-11----|
|----------------------------------------------------------------12-|
|-------------------------------------------------------------------|
|-------------------------------------------------------------------|
|-------------------------------------------------------------------|

|------------------------------12/19--18--17--14--13-----------------|
|-----------15\8-8h9p7--7h9p8~~----------------------12h15p11-----13-|
|----------------------15------------------------------------12-12---|
|-00-00-00------------12---------------------------------------------|
|-00-00-00-----------14----------------------------------------------|
|-00-00-00-----------------------------------------------------------|
  .. .. ..

|-------11----------------------------------------------------|
|-8-9-10--10~/12-13-12-13-15-12-13-12-13-15-12-13-12-13-15----|
|----9--------------------------------------------------------|
|----------------------------------------------------------00-|
|----------------------------------------------------------00-|
|----------------------------------------------------------00-|
                                                           ..

|---------------------------------------------19-17\15-16-13-|
|------------------------------------------------------------|
|-15-17-15-17-18-15-17-15-17-18-15~--------------------------|
|----------------------------------7-5\3-4-3-2---------------|
|----------------------------------7-5\3-4-3-2---------------|
|----------------------------------7-5\3-4-3-2---------------|
                                   . . . . . .


|-13\10-11-10\8--------------------------------------------------------|
|--------------7h9h11p7h9h11p7h10h12p7h9h15p7h9h14p7h14p9p7h9h19~~~~~\-|
|----------------------------------------------------------------------|
|----------------------------------------------------------------------|
|----------------------------------------------------------------------|
|----------------------------------------------------------------------|


|-13-12-10--13-12-10------------------------------------------------------|
|---------11--------11-14-13-11----------------------------9h10p9~8b(1/2)-|
|------------------------------12~14-15---------------12--7---------------|
|--------------------------------------16-19-12-12--15--15----------------|
|-------------------------------------------------12----------------------|
|-------------------------------------------------------------------------|


|----------------9------------13-12-10--13-12-10-----------13-12-10---|
|-8b(1/4)-8b(1/4)-7-0-5/12~-16--------11--------11-14-13-11--------11-|
|--------------------------15------------------------------12---------|
|---------------------------------------------------------------------|
|---------------------------------------------------------------------|
|---------------------------------------------------------------------|


|-13-12-10----------------------|
|---------11-14-13-11-----------|
|--------------------12~~~~~~~\-|
|--------------------------0----|
|--------------------------0----|
|--------------------------0----|
                           .

. = palm mute    / or \ = slide
h = hammer on    p = pull off
b = bend         (1/4) = bend 1/4 way
(1/2) = bend 1/2 way
~ = tremolo


Well, there it is. Tell me what you think.
Добавлено: 01.02.2014
Другие материалы по этой песне:
  • Аккорды и текст

Страница создана 01.02.2014
http://primanota.ru/misc-unsigned-bands/irritation-overload-mini-malmsteen-chords.htm
Привет, Гость.
Предлагаем пройти революционный курс по гитаре.
Подарок от PrimaNota.Ru, забирай!