PrimaNota.ru - самый крупный в мире бесплатный архив песенных текстов, аккордов, табулатур и нот


Misc Unsigned Bands - It Prevails - Explanation Content - таба

Регистрация Запомнить меня
Войти через:  Facebook Google Twitter Vk Yandex Mail.ru

Misc Unsigned Bands - It Prevails - Explanation Content - таба

Печатать
Просмотров: 33
I think you can figure out the rythm :D
Intro-0:00 to 0:13
C|---------------------------------------3--------3-------3-----------------|
D|-------------------------------------------1p0-----1p0-----1p0------------|
G#|-----------------3h5p3---------------------------------------------------|
A|--7--7-----7--5----------5------3--3--------------------------------------|
F|--7--7--------------------------3--3--------------------------------------|
A#|-7--7--------------------------3--3--------------------------------------|

1st Verse-0:14 to 0:26
|---------------------------------------------------------------------------|
|---------------------------------------------------------------------------|
|----------------------------------------9---7---5----9---7-----------------|
|--7---5---3----7---5---10---14---17-----x---x---x----x---x-----------------|
|--7---5---3----7---5---10---14---17-----7---5---3----7---5-----------------|
|--7---5---3----7---5---10---14---17----------------------------------------|

2nd Verse part 1-0:27 to 0:35 Repeat All 2x
|-----------------------------|-----------|------------------------------|------------|
|-----------------------------|-----------|------------------------------|------------|
*quickly-picked*-----repeat-3x|-----------|*quickly-picked*-----repeat-3x|------------|
|--7-7-7-7--------5-----------|-----------|-----7-7-7---------5----------|------------|
|--7-7-7-7--------5-----------|-----------|-----7-7-7---------5----------|------------|
|--7-7-7-7--------5-----------|-3-3-3-3h5-|-----7-7-7---------5----------||-3-3-3-3h5-|
                                Palm Mute
2nd Verse Part 2-0:36 to 0:51 Repeat 2x
|------------------------------------------------------------------------------------|
|------------------------------------------------------------------------------------|
|*quickly picked*--------------------------------------------------------------------|
|--7-7-7-7------5-------7-7-7-7-------------7-7-7-7-----------7-7-7-7----------------|
|--7-7-7-7--------------7-7-7-7------7------7-7-7-7------5----7-7-7-7----------------|
|--7-7-7-7--------------7-7-7-7-------------7-7-7-7-----------7-7-7-7----3-3-3-3h5---|

Chorus Thing-0:51 to 1:17
|------------------|--------------------------------------------------------|
|------------------|----lead part/octave notes------------------------------|
|------------------|-----12-/--9----12-/-5----------------------------------|
|--7------3-------5|-7---x--/--x----x--/-x----------------------------------|
|--7------3-------5|-7---10-/--7----10-/-3----------------------------------|
|--7------3-------5|-7------------------------------------------------------|

Slow Interlude Thing-2:00 to 2:12
|-----5p3-----------5p3-----------5p3--------------------------------|
|--------------------------------------------------------------------|
|--------------------------------------------------------------------|
|-3~---------5~--------------7~------------3-3-3-3----5-5-5-5----5~--|
|-3~---------5~--------------7~------------3-3-3-3----5-5-5-5----5~--|
|-3~---------5~--------------7~------------3-3-3-3----5-5-5-5----5~--|
                                           *....palm.mute....*

And Thats All There Really Is To know, the rythym is easy to figure out, and it just 
repeats itself through the song :D
Pleaseee rate :DDDDD
Добавлено: 26.01.2014
Другие материалы по этой песне:
  • Аккорды и текст

Страница создана 26.01.2014
http://primanota.ru/misc-unsigned-bands/it-prevails-explanation-content-chords.htm
Привет, Гость.
Предлагаем пройти революционный курс по гитаре.
Подарок от PrimaNota.Ru, забирай!