PrimaNota.ru - самый крупный в мире бесплатный архив песенных текстов, аккордов, табулатур и нот


Misc Unsigned Bands - In Your Eyes - Verax - таба

Регистрация Запомнить меня
Войти через:  Facebook Google Twitter Vk Yandex Mail.ru

Misc Unsigned Bands - In Your Eyes - Verax - таба

Печатать
Просмотров: 43
I tabbed this song by ear so hopefully it should be 100% correct but if not e-mail me at 
  xander1711@hotmail.com

i wrote this tab since there was only one made and im pretty sure parts of it are wrong 
this version should be correct but if not then don't hesitate to e-mail me.

Tuning - Standard (EADGBe)

~ - sustain the note/chord for a couple of seconds
h - hammer on
p - pull off
b - bend
/ - slide up to note/chord
\ - slide down from note/chord

e||----------------------------------|
B||----------------------------------|
G||---6-6-6---9---6------------------| Play 3 times
D||---6-6-6---9---6---7----9--10-----|
A||---4-4-4---7---4---7----9--10-----|
E||-------------------5----7--8------|

Then play this part

e||--------------------------------|
B||--------------------------------|
G||---6-6-6---9---6----------------|
D||---6-6-6---9---6----10~---------|
A||---4-4-4---7---4----10~---------|
E||---------------------8~---------|

solo 1 (this is just a small solo so don't be worried)

e||----------------------------------------------------------------|
B||-14-12-14~----14-12-14~----14-12-14~----14-12-14~--11-12-13~----|
G||----------------------------------------------------------------|
D||----------------------------------------------------------------|
A||----------------------------------------------------------------|
E||----------------------------------------------------------------|


main riff

e||-----------------------------------------------------|
B||-----------------------------------------------------|
G||--6--6--6--6--6--6--6--6--4--4--4--4--4--4--5--5-----| Play twice
D||-----------------------------------------------------|
A||-----------------------------------------------------|
E||-----------------------------------------------------|

Chorus riff

guitar 1

e||----------------------------------------------------------|
B||----------------------------------------------------------|
G||----------------------------------------------------------|
D||-11~-----9~-----7~-----9~-----11~----9~-----7~-----9~-----|
A||-9-~-----7~-----5~-----7~-----9-~----7~-----5~-----7~-----|
E||-9-~-----7~-----5~-----7~-----9-~----7~-----5~-----7~-----|

guitar 2

e||------------------------------------------------------------|
B||-------------------------------------------9----------------|
G||------------8-9---11-9-----------------6-8----9-8~--9-8-6---|
D||-11~-----9~-----7~-----9~-----11~----9~---------------------|
A||------------------------------------------------------------|
E||------------------------------------------------------------|

solo 2 (again this isnt a very big solo, and its not fast)

e||---------------------------------------------------|
B||----------------7--9~---10-9-----------------------|
G||-(6)-9--8~---9----------------8~---8--9--8~--------|
D||---------------------------------------------------|
A||---------------------------------------------------|
E||---------------------------------------------------|

then it's back to the main riff

e||-----------------------------------------------------|
B||-----------------------------------------------------|
G||--6--6--6--6--6--6--6--6--4--4--4--4--4--4--5--5-----| Play twice
D||-----------------------------------------------------|
A||-----------------------------------------------------|
E||-----------------------------------------------------|

Chorus riff

guitar 1

e||----------------------------------------------------------|
B||----------------------------------------------------------|
G||----------------------------------------------------------|
D||-11~-----9~-----7~-----9~-----11~----9~-----7~-----9~-----|
A||-9-~-----7~-----5~-----7~-----9-~----7~-----5~-----7~-----|
E||-9-~-----7~-----5~-----7~-----9-~----7~-----5~-----7~-----|

guitar 2

e||------------------------------------------------------------|
B||-------------------------------------------9----------------|
G||------------8-9---11-9-----------------6-8----9-8~--9-8-6---|
D||-11~-----9~-----7~-----9~-----11~----9~---------------------|
A||------------------------------------------------------------|
E||------------------------------------------------------------|


Solo 3 (another easy little solo)

e||--------------------------------------------------------------------------------|
B||--------------------------------------------------------------------------------|
G||--9-9-6-6--9-9-6-6--9-9-6-6--9-9-6-6--8-8-5-5--8-8-5-5--8-8-5-5--8-8--5-5-------|
D||--------------------------------------------------------------------------------|
A||--------------------------------------------------------------------------------|
E||--------------------------------------------------------------------------------|

e||------------------------------------------------------------------------------|
B||--------------------------------------7-7-----7-7------9-9-----7-7------------|
G||--9-9-6-6--9-9-6-6--9-9-6-6--9-9-6-6------6-6-----6-6------6-6-----6-6--------|
D||------------------------------------------------------------------------------|
A||------------------------------------------------------------------------------|
E||------------------------------------------------------------------------------|

Then play that little section again

e||--------------------------------------------------------------------------------|
B||--------------------------------------------------------------------------------|
G||--9-9-6-6--9-9-6-6--9-9-6-6--9-9-6-6--8-8-5-5--8-8-5-5--8-8-5-5--8-8--5-5-------|
D||--------------------------------------------------------------------------------|
A||--------------------------------------------------------------------------------|
E||--------------------------------------------------------------------------------|

e||------------------------------------------------------------------------------|
B||--------------------------------------7-7-----7-7------9-9-----7-7------------|
G||--9-9-6-6--9-9-6-6--9-9-6-6--9-9-6-6------6-6-----6-6------6-6-----6-6~-------|
D||------------------------------------------------------------------------------|
A||------------------------------------------------------------------------------|
E||------------------------------------------------------------------------------|

Slow part of the solo

e||----------------------------------------------------------------|
B||----------------------------------------------------------------|
D||---------------------------10-13-11-14~-----11-14-11-13---------|
A||----------------------------------------------------------------|
E||--(little bass lick)--------------------------------------------|

then back to the main riff again

e||-----------------------------------------------------|
B||-----------------------------------------------------|
G||--6--6--6--6--6--6--6--6--4--4--4--4--4--4--5--5-----|
D||-----------------------------------------------------|
A||-----------------------------------------------------|
E||-----------------------------------------------------|

Chorus riff

guitar 1

e||----------------------------------------------------------|
B||----------------------------------------------------------|
G||----------------------------------------------------------|
D||-11~-----9~-----7~-----9~-----11~----9~-----7~-----9~-----|
A||-9-~-----7~-----5~-----7~-----9-~----7~-----5~-----7~-----|
E||-9-~-----7~-----5~-----7~-----9-~----7~-----5~-----7~-----|

guitar 2

e||------------------------------------------------------------|
B||-------------------------------------------9----------------|
G||------------8-9---11-9-----------------6-8----9-8~--9-8-6---|
D||-11~-----9~-----7~-----9~-----11~----9~---------------------|
A||------------------------------------------------------------|
E||------------------------------------------------------------|

then play solo 1 again

e||--------------------------------------------------------------|
B||-14-12-14~----14-12-14~----14-12-14~----14-12-14--12-12-13~---|
G||--------------------------------------------------------------| Play twice
D||--------------------------------------------------------------|
A||--------------------------------------------------------------|
E||--------------------------------------------------------------|

and then finally end on this

e||-----------------|
B||-----------------|
G||----6\-----------|
D||----6\-----------|
A||----4\-----------|
E||-----------------|

hope you enjoyed this tab and i hope it helped, its pretty easy once you learn it all so 
fun learning it.
Добавлено: 14.09.2013
Другие материалы по этой песне:
  • Аккорды и текст

Страница создана 14.09.2013
http://primanota.ru/misc-unsigned-bands/in-your-eyes-verax-chords.htm
Привет, Гость.
Предлагаем пройти революционный курс по гитаре.
Подарок от PrimaNota.Ru, забирай!