PrimaNota.ru - самый крупный в мире бесплатный архив песенных текстов, аккордов, табулатур и нот


Misc Unsigned Bands - Innerpartysystem - Dont Stop - таба

Регистрация Запомнить меня
Войти через:  Facebook Google Twitter Vk Yandex Mail.ru

Misc Unsigned Bands - Innerpartysystem - Dont Stop - таба

Печатать
Просмотров: 50
---------------------------------------------------------------------------
ARTIST - INNERPARTYSYSTEM
TAB CREATOR- JACK DUNKERLEY
WWW.MYSPACE.COM/INNERPARTYSYSTEM

I heard this song on NME the other day and thought it was fucking wicked! sounds a 
bit like pendulum.
anyway no one as tabbed it yet so far so i thought i'd give it a go =]
this aint 100% but its close.


Verse 1

The road I walk is paved with gold
To glorify my platinum soul
I'll buy my way to talk to God
So he can live with what I'm not

(All In Tremelo)
E-----------------------------|[X2]
B-----------------------------|
G-----------------------------|
D-----------------------------|
A-----------------------------|
E--9x32-9x32-9x32-9x32--------|

Little Fill between verse 1 & 2

E-------------------------------|
B-------------------------------|
G-------------------------------|
D-------------------------------|
A-------------------------------|
E--9--9---9--9-9--9-------------|

Verse 2 [Still All In Tremelo]

The selfish blood flows through my veins
I gave up everything for fame
I am the lie that you adore
I feed the rich and fuck the poor

E-----------------------------|[X2]
B-----------------------------|
G-----------------------------|
D-----------------------------|
A------------12x32-11x32------|
E--9x32-9x32------------------|

PreChorus

I got, you want
It's just, don't stop
I got, you want
It's just, don't stop

E-----------------------------|[X2]
B-----------------------------|
G-----------------------------|
D-----------------------------|
A-----------------------------|
E--9x32-9x32--5x32-7x32-------|

Chorus

This is entertainment
Lies are entertainment
You are down on your knees
Begging me for more

E------------------------------|
B------------------------------|
G------------------------------|
D--7------11------9-----12-----|
A--7 x16--11 x16--9 16--12 x16-|
E--5------9-------7-----10-----|

Verse 3 & 4 the same riff as verse 2,so do this above riff four times to cover both those verse:

E-----------------------------|
B-----------------------------|
G-----------------------------|
D-----------------------------|
A------------12x32-11x32------|
E--9x32-9x32------------------|


The Breakdown has no guitar in it i dont think  so i tabbed the vocal part instead!

E--------------------------------------------- [X4-----------------|       Then
B------------------------------------------------------------------|       Finish On this!
G--13--11--------13--14--13----13--11---------       --------------|
D----------14--------------------------11-14--       -14/16-16/18--|
A------------------------------------------------------------------|
E------------------------------------------------------------------|

Finish On
Outro

 This where the vocals are held on (Begging me for more...) and the insturments play the 
notes for a second time as below...

E------------------------------|
B------------------------------|
G------------------------------|
D--7------11------9-----12-----|
A--7 x16--11 x16--9 16--12 x16-|
E--5------9-------7-----10-----|

Then the end bit where everything sounds mad i think the guitar hits a few C# Chords and 
them down tthe fretboard towards the head like below.

E---------------------------------|
B---------------------------------|
G---------------------------------|
D--11/------11/------11/------11/-|
A--11/------11/------11/------11/-|
E--9-/------9-/------9-/------9-/-|


Like said its not 100% correct but it sounds pretty good when playing along to it!

Peace
Punk2k6
---------------------------------------------------------------------------
Добавлено: 04.12.2013
Другие материалы по этой песне:
  • Аккорды и текст

Страница создана 04.12.2013
http://primanota.ru/misc-unsigned-bands/innerpartysystem-dont-stop-chords.htm
Привет, Гость.
Предлагаем пройти революционный курс по гитаре.
Подарок от PrimaNota.Ru, забирай!