PrimaNota.ru - самый крупный в мире бесплатный архив песенных текстов, аккордов, табулатур и нот


Misc Unsigned Bands - Infinities End - We Were Kids - таба, видео

Регистрация Запомнить меня
Войти через:  Facebook Google Twitter Vk Yandex Mail.ru

Misc Unsigned Bands - Infinities End - We Were Kids - таба, видео

Печатать
Просмотров: 36
Song: We Were Kids
Artist: Infinities End
Album: Just Our Luck
Tabbed By: Josh Cruz/destinon1213@Yahoo.com

Tuning: Standard (EADGbe)
*p means Palm-Mute

-Song is played by two Guitars doing the exact same parts throughout the whole song till 
small split section on at the end. The intro is played by only 1 guitar. The second 
enters when the bass does.

Intro: 00:00 - 00:23
e|----------------------------------|
b|----------------------------------|
G|----------------------------------| x10
D|-------9-------10-------9---------|
A|-10-10---10-10----10-10---10-10-9-|
E|----------------------------------|

Verse 1: 00:24 - 00:43

e|-----------------------------------------------------|
b|-----------------------------------------------------|
G|-------------4-4-44444---------------5-5-555555555555| x2
D|-5-5-55555---4-4-44444---2-2-22222---5-5-555555555555|
A|-5-5-55555---2-2-22222---2-2-22222---3-3-333333333333|
E|-3-3-33333---------------0-0-00000-------------------|

-Repeat the Intro line eight times after the verse.

Verse 2: 1:02 - 1:20

             p p p            p p p            p p p
e|--------------------------------------------------------------------|
b|--------------------------------------------------------------------|
G|------------------4-4-44444-------------------------5-5-555555555555| x2
D|-5-5-55555-2-2-2--4-4-44444-2-2-2--2-2-22222-2-2-2--5-5-555555555555|
A|-5-5-55555-2-2-2--2-2-22222-2-2-2--2-2-22222-2-2-2--3-3-333333333333|
E|-3-3-33333-0-0-0------------0-0-0--0-0-00000-0-0-0------------------|

Chorus: 1:20 - 1:39

e|--------------------------------------------------------------------|
b|--------------------------------------------------------------------|
G|-----------------------------------5-5-55555-5-5555-7-7-77777-7-7777| x2
D|-5-5-55555-5-5555-2-2-22222-2-2222-5-5-55555-5-5555-7-7-77777-7-7777|
A|-5-5-55555-5-5555-2-2-22222-2-2222-3-3-33333-3-3333-5-5-55555-5-5555|
E|-3-3-33333-3-3333-0-0-00000-0-0000----------------------------------|

-Repeat the Intro Line eight times after the Chorus.

Verse 3: 1:57 - 2:15
   p p
e|-------|
b|-------|
G|-------| x28
D|-5-5-5-|
A|-5-5-5-|
E|-3-3-3-|

-Repeat the Chorus, but end on the first power chord and let it ring.

Solo: 2:35 - 3:08 *Guitar starts playing at 2:42

e|---------------------------------|
b|---------------------------------|
G|---------------------------------| x2
D|-5-5-4-4-0-0-0-0-4-4-5-5-7-7-7-7-|
A|---------------------------------|
E|---------------------------------|

e|-------|
b|-------|
G|-------| x3 *Let the 0 ring
D|-5-4-0-|
A|-------|
E|-------|

e|----------------|
b|----------------|
G|----------------| x4
D|-5-4-0---00-7-7-|
A|----------------|
E|----------------|

e|-------------------|
b|-------------------|
G|-------------------| *Let the last note ring
D|-5-5-5-5-5-5-5-5-5-|
A|-------------------|
E|-------------------|

-Repeat Chorus once then play this after the chorus finishes.

e|---------------------------------|
B|---------------------------------|
G|-----------------5-------7-------| *Let the last two power chords ring
A|-5-------2-------5-------7-------|
D|-5-------2-------3-------5-------|
E|-3-------0-----------------------|

-Guitars split parts here...

-Guitar 1 plays the Intro Line till the end, Guitar 2 plays the Chorus line till the end.

-Both guitars end the song on the G power chord (or the first power chord of the 
letting it ring.

And there you have it, that's the song. It may be very simple to play, but it's very 
and fun to play.

Any questions feel free to email me about it, and I shall answer to the best of my 
:)
Добавлено: 01.12.2013
Другие материалы по этой песне:
  • Аккорды и текст

Страница создана 01.12.2013
http://primanota.ru/misc-unsigned-bands/infinities-end-we-were-kids-chords.htm
Привет, Гость.
Предлагаем пройти революционный курс по гитаре.
Подарок от PrimaNota.Ru, забирай!