PrimaNota.ru - самый крупный в мире бесплатный архив песенных текстов, аккордов, табулатур и нот


Misc Unsigned Bands - Hetalia - Prussia - Mein Gott - таба

Регистрация Запомнить меня
Войти через:  Facebook Google Twitter Vk Yandex Mail.ru

Misc Unsigned Bands - Hetalia - Prussia - Mein Gott - таба

Печатать
Просмотров: 151
I'm not too sure about some of it, I'm pretty sure the harmonic is wrong, if you figure 
it out then tell me and I'll change it ^-^

I didn't put any strumming patterns or anything since it's kinda obvious how to do it. 
Also it's a little messy because I had to re-do it to put it on here because none of it 
was lined up .-.

This is the beginning part that you don't actually have to play, I just felt like 
tabbing it aswell
|-8---11-9-8---9-8----8---8-------------------------|
|---9--------9-----11---9---11-9-11-8-11-9h11p9-8-9-|
|---------------------------------------------------|
|---------------------------------------------------|
|---------------------------------------------------|
|---------------------------------------------------|

Intro
|---------------------------------| |--------------------------------|
|---------------------------------| |--------------------------------|
|---------------------------------| |--------------------------7^*---|
|-------6-----8-6---9-8-6-8-6-----| |-------6-----8-6---9-8-6--------|
|-8-6-----8-6-----8-----------8-6-| |-8-6-----8-6-----8--------------|
|-----8---------------------------| |-----8--------------------------|


|---------------------------------|
|---------------------------------|
|---------------------------------| x2
|-------6-----8-6---9-8-6-8-6-----|
|-8-6-----8-6-----8-----------8-6-|
|-----8---------------------------|

Verse
|--------------------|
|--------------------|
|--------------------|
|---------8----3---6-|
|-3---6---6----1---4-|
|-1---4--------------|

|-----------------| |---------|
|-----------------| |---------|
|-----------------| |---------|
|---------8---6---| |-6-5-----|
|-3---6---6---4---| |-4-3-8-6-|
|-1---4-----------| |-----6-4-|

|---------------------------|
|---------------------------|
|---------------------------|
|-3---6-----------3---6---8-|
|-1---4---6---4---1---4---6-|
|---------4---2-------------|


Chorus
|-------------------------| |-------------|
|-------------------------| |-------------|
|-------------------------| |-------------|
|-4---6---8---6-----------| |-----4-6-8-6-|
|-2---4---6---4---2---4---| |-6-8-2-4-6-4-|
|---------------------2---| |-4-6---------|

|--------------------------| |------------------|
|--------------------------| |------------------|
|--------------------------| |------------------|
|-4---6---8---6----------6-| |-6-8-9-11---------|
|-2---4---6---4---2---4--4-| |-4-6-7-9--------2-|
|---------------------2----| |----------4-2-4---|

Play from intro to chorus again

Solo
|---------7-9-11---11-12-14-12---13-16-19---19-21-19-18-|
|-9----11-----------------------------------------------|
|-------------------------------------------------------|
|-------------------------------------------------------|
|-------------------------------------------------------|
|-------------------------------------------------------|


|---------------------------|
|---------------------------|
|---------------------------|
|-3---6-----------3---6---8-|
|-1---4---6---4---1---4---6-|
|---------4---2-------------|

Chorus
|-------------------------| |-------------|
|-------------------------| |-------------|
|-------------------------| |-------------|
|-4---6---8---6-----------| |-----4-6-8-6-|
|-2---4---6---4---2---4---| |-6-8-2-4-6-4-|
|---------------------2---| |-4-6---------|

|--------------------------|    |------------------|
|--------------------------|    |------------------|
|--------------------------|    |------------------|
|-4---6---8---6----------6-|x1  |-6-8-9-11---------|x2
|-2---4---6---4---2---4--4-|    |-4-6-7-9--------2-|
|---------------------2----|    |----------4-2-4---|


Then at the end you can repeat the intro or do another part which I haven't tabbed out 
yet but I'll try and do it as soon as I can
Добавлено: 23.11.2013
Другие материалы по этой песне:
  • Аккорды и текст

Страница создана 23.11.2013
http://primanota.ru/misc-unsigned-bands/hetalia-prussia-mein-gott-chords.htm
Привет, Гость.
Предлагаем пройти революционный курс по гитаре.
Подарок от PrimaNota.Ru, забирай!