PrimaNota.ru - самый крупный в мире бесплатный архив песенных текстов, аккордов, табулатур и нот


Misc Unsigned Bands - Hey Yogscast - Monica Prunier Ft The Yogscast - таба

Регистрация Запомнить меня
Войти через:  Facebook Google Twitter Vk Yandex Mail.ru

Misc Unsigned Bands - Hey Yogscast - Monica Prunier Ft The Yogscast - таба

Печатать
Просмотров: 56
Уроки эстрадного вокала в Санкт-Петербурге
Pre-tab rambles and notes:
I'm making this because I couldn't find the tab to this song anywhere when I looked for 
it, however, for those who don't know how to read tab or just want to learn off a video; 
Monica herself has made a tutorial on youtube explaining how to play on her account 'Darkovika'.
P.s. I have now discovered that Ultimate Guitar hates punctuation so I have had to go 
through and remove some of the commas/apostrophes etc. Don't kill me.
---

Monica uses Capo 4
If you don't have a capo the tab still works fine though :)

---
CHORDS:
Cadd9: x32033
D: xx0232
G5: 300030
D5: xx0230
Em: 022000
C: x32010
G: 320003
---
THE TAB:

Intro:

  Cadd9       D        Cadd9       G5
e-----3---|-----2---|---------|------0----|
b-----3-3-|-------3-|-----3---|--------3--|
g---0-----|---0-----|---0---0-|----0------|
d-2-------|-0-------|---------|-----------|
a---------|---------|-3-------|-----------|
e---------|---------|---------|-3---------|

Verse:

  Cadd9       D        Cadd9       G5
      Hey   Yogscast   can-you he-ar me?
e-----3---|-----2---|----------|------0----|
b-----3-3-|-------3-|-----3----|--------3--|
g---0-----|---0-----|---0----0-|----0------|
d-2-------|-0-------|----------|-----------|
a---------|---------|-3--------|-----------|
e---------|---------|----------|-3---------|

     Id  like a new  video  ple-eeease
-----3---|-----2---|----------|------0----|
-------3-|-------3-|-----3----|--------3--|
---0-----|---0-----|---0----0-|----0------|
-2-------|-0-------|----------|-----------|
---------|---------|-3--------|-----------|
---------|---------|----------|-3---------|

I know you're  busy     but hear me  out guys
------3----|-----2---|-------------|------0----|
---------3-|-------3-|------3------|--------3--|
---0-------|---0-----|---0------0--|----0------|
-2---------|-0-------|-------------|-----------|
-----------|---------|-3-----------|-----------|
-----------|---------|-------------|-3---------|

     I    have no   social     liiiiii-fe
-----3---|-----2---|----------|------0----|
-------3-|-------3-|-----3----|--------3--|
---0-----|---0-----|---0----0-|----0------|
-2-------|-0-------|----------|-----------|
---------|---------|-3--------|-----------|
---------|---------|----------|-3---------|

Riff before next verse:
D5
---------0-------|
-----3-----3---3-|
---2---2-----2---|
-0---------------|
-----------------|
-----------------|

Verse 2:

  Cadd9       D        Cadd9       G5
 I'm posting comments   on your new vi-de-os
e-----3----|-----2---|------------|------0----|
b-----3-3--|-------3-|------3-----|--------3--|
g---0------|---0-----|---0------0-|----0------|
d-2--------|-0-------|------------|-----------|
a----------|---------|-3----------|-----------|
e----------|---------|------------|-3---------|

    ho-ping  they will  speed up the  tiiiii-me
-----3------|-----2----|------------|------0----|
--------3---|-------3--|-----3------|--------3--|
---0--------|---0------|---0----0---|----0------|
-2----------|-0--------|------------|-----------|
------------|----------|-3----------|-----------|
------------|----------|------------|-3---------|

     More   Minecraft!  Oh give me  Is-ra-phel!
------3----|-----2---|-------------|------0----|
---------3-|-------3-|------3------|--------3--|
---0-------|---0-----|---0------0--|----0------|
-2---------|-0-------|-------------|-----------|
-----------|---------|-3-----------|-----------|
-----------|---------|-------------|-3---------|

    Arent   you just fed up with meee-eeeeeeeee?
-----3----|-----2---|-----------|------0----|
-------3--|-------3-|-----3-----|--------3--|
---0------|---0-----|---0----0--|----0------|
-2--------|-0-------|-----------|-----------|
----------|---------|-3---------|-----------|
----------|---------|-----------|-3---------|

Riff before chorus:
(after playing riff, transition to strumming D5)
D5
---------0-------|
-----3-----3---3-|
---2---2-----2---|
-0---------------|
-----------------|
-----------------|

CHORUS:
Em
If you want to
C
Take your time guys
G                   D
I can wait for your shenanigans
Em
Singing morning songs
C
Run from zombies
G                  D
Thats a very nice everything youve got there

(The main riff changes here, but you can play it like in the first verse if it is too 
difficult to sing to)
  Cadd9        D          Cadd9       G5
e-----3------|-----2-----|------------|------0-----|
b--------3-3-|-------3-3-|-----3------|--------3-3-|
g---0-----0--|---0----0--|---0---0-0--|----0----0--|
d-2----------|-0---------|------------|------------|
a------------|-----------|-3------3---|------------|
e------------|-----------|------------|-3----------|

    Si- mon plays with fire    Lew- is   puts it out
-----3------|------2-------|------------|------0-----|
--------3-3-|---------3-3--|-----3------|--------3-3-|
---0-----0--|---0------0---|---0---0-0--|----0----0--|
-2----------|-0------------|------------|------------|
------------|--------------|-3------3---|------------|
------------|--------------|------------|-3----------|

    Ha- nnah keeps them from blowing up the woooo-rld
-----3------|------2--------|------------|------0-----|
--------3-3-|----------3-3--|-----3------|--------3-3-|
---0-----0--|---0-------0---|---0---0-0--|----0----0--|
-2----------|-0-------------|------------|------------|
------------|---------------|-3------3---|------------|
------------|---------------|------------|-3----------|

   I love you   dea-rly       you guys have made me see
-----3------|------2--------|---------------|------0-----|
--------3-3-|----------3-3--|-----3---------|--------3-3-|
---0-----0--|---0-------0---|---0-----0-0---|----0----0--|
-2----------|-0-------------|---------------|------------|
------------|---------------|-3--------3----|------------|
------------|---------------|---------------|-3----------|

    life can  really be  a   blaaaaaaaast
-----3------|------2--------|---------------|------0-----|
--------3-3-|----------3-3--|-----3---------|--------3-3-|
---0-----0--|---0-------0---|---0-----0-0---|----0----0--|
-2----------|-0-------------|---------------|------------|
------------|---------------|-3--------3----|------------|
------------|---------------|---------------|-3----------|

Pre-chorus riff:
(after playing riff, transition to strumming D5)
D5
---------0-------|
-----3-----3---3-|
---2---2-----2---|
-0---------------|
-----------------|
-----------------|

CHORUS:
Em
If you want to
C
Take your time guys
G                   D
I can wait for your shenanigans
Em
Singing morning songs
C
Run from zombies
G                  D                          Em
Thats a very nice everything youve got there

      C
Every day now
                 G
I watch from the start
          D
With such memories
                  Em     C   G       D
Theyre deep in my heaaaaart, OOOOoooooh

Em    C
Watch again now
G    D
Here Israphel comes
Em   C
With arrows
G      D
Way up above

Em            C
Watch out for dangerous traps
G               D
Theyll send you straight to Hell
Em               C              G          D        Em    C
Where youll send greetings from here with Israphel
    G D Em C G D
OoooooooOOOOOooooh

Em
If you want to
C
Take your time guys
G                   D
I can wait for your shenanigans
Em
Singing morning songs
C
Run from zombies
G                 D                         Em
Thats a very nice everything youve got there

  Cadd9       D        Cadd9       G5
e-----3---|-----2---|---------|------0----|
b-----3-3-|-------3-|-----3---|--------3--|
g---0-----|---0-----|---0---0-|----0------|
d-2-------|-0-------|---------|-----------|
a---------|---------|-3-------|-----------|
e---------|---------|---------|-3---------|

  I love you  de-arly    I want the  world to see
-----3------|-----2----|------------|-------0----|
--------3---|-------3--|-----3------|---------3--|
---0--------|---0------|---0----0---|-----0------|
-2----------|-0--------|------------|------------|
------------|----------|-3----------|------------|
------------|----------|------------|--3---------|

    My      name is Dave Yog-nauuuuuuught
                            Cadd9
-----3-----|----------2----|-3---------|
--------3--|------------3--|-3---------|
---0-------|---0-----------|-0---------|
-2---------|-0-------------|-2---------|
-----------|---------------|-3---------|
-----------|---------------|-0---------|

---
Thanks for using my tab !
I AM DAVE!YOGNAU(GH)T!
Добавлено: 31.10.2013
Другие материалы по этой песне:
  • Аккорды и текст

Страница создана 31.10.2013
http://primanota.ru/misc-unsigned-bands/hey-yogscast-monica-prunier-ft-the-yogscast-chords.htm
Привет, Гость.
Предлагаем пройти революционный курс по гитаре.
Подарок от PrimaNota.Ru, забирай!