PrimaNota.ru - самый крупный в мире бесплатный архив песенных текстов, аккордов, табулатур и нот


Misc Unsigned Bands - Hiatus Kaiyote - Ocelot - таба

Регистрация Запомнить меня
Войти через:  Facebook Google Twitter Vk Yandex Mail.ru

Misc Unsigned Bands - Hiatus Kaiyote - Ocelot - таба

Печатать
Просмотров: 73
-------------------------------------------------------------------------------
                             Ocelot - Hiatus Kaiyote
-------------------------------------------------------------------------------
Tabbed by: mjohnson1915
Tuning: Standard

Each section of the song is transcribed for guitar except drums, lead vocals, and the 
distorted Calliope-like organ in the second half of the song. The spacing is different for 
the ORGAN 1 tabs because they hit double-digit frets:


ORGAN 1 (THROUGHOUT)

e|-x-----x-----x-----x-/x-----|x-----x-----x-----x/x----|
B|-5-----7-----3-----12/14----|5-----7-----3-----2/4----|
G|-4-----6-----2-----11/13----|4-----6-----2-----1/3----|
D|-5-----7-----3-----12/14----|5-----7-----3-----2/4----|
A|-3-----5-----1-----10/12----|3-----5-----1-----0/2----|
E|-x-----x-----x-----x-/x-----|x-----x-----x-----x/x----|


BASS (THROUGHOUT)

e|-------------------------|-------------------------|
B|-------------------------|-------------------------|
G|-------------------------|-------------------------|
D|-------------------------|-------------------------|
A|---------------------4---|--------------------4----|
E|-x--5--7-----3-----4-----|x--5--7-----3-----4------|


VOCALS 1 (PART 2 - FOUR MEASURES)

e|-------------------------|------------------------|
B|-------------------------|----------------3-------|
G|------------6-6-6-6------|-----------6-6-6-6------|
D|-------------------------|------------------------|
A|----420------------------|---420------------------|
E|-532---------------------|532---------------------|

e|-------------------------|------------------------|
B|----------555------------|------------------------|
G|----------666------------|------------------------|
D|-------------------------|------------------------|
A|----420------------------|------------------------|
E|-532---------------------|------------------------|


VOCALS 2 (PART 2 - FOUR MEASURES)

e|-------975---------------|------975---------------|
B|-5-----7-----------------|5-----7-----------------|
G|-------------------------|------------------------|
D|-------------------------|------------------------|
A|-------------------------|------------------------|
E|-------------------------|------------------------|

e|-------975---------------|------975---------------|
B|-5-----7-----------------|5-----7-----------------|
G|-------------------------|------------------------|
D|-------------------------|------------------------|
A|-------------------------|------------------------|
E|-------------------------|------------------------|


VOCALS 3 (PART 3)

e|-------------------------|------------------------|
B|---------5---------------|--------5-5-------------|
G|---------6---------------|--------6-6-------------|
D|-------------------------|------------------------|
A|-------------------------|------------------------|
E|-------------------------|------------------------|

e|---------7-7-7-----------|---------7-7------------|
B|---------5-5-5-----------|--------5-5-5-5---------|
G|---------6-6-6-----------|--------6-6-6-666-------|
D|-------------------------|------------------------|
A|-------------------------|------------------------|
E|-------------------------|------------------------|


ORGAN 2 (PART 2-3)
[Note 1: This part has been abandoned for the time being - it's agonizing to pick up by ear.]
[Note 2: The string of 1's are actually a pair of 11's or a pair of 11's followed by a 10.]

e|-----13--13----13----13----13----------20|---13-13---13-13---13-13-----22--|
B|-------11--------1111--1111--111110------|---------------------------------|
G|-------------------------|-------------------------------------------------|
D|-13--------14--------12----------13------|---------------------------------|
A|-------------------------|-------------------------------------------------|
E|-------------------------|-------------------------------------------------|


************************************

| /   slide up
| \   slide down
| h   hammer-on
| p   pull-off
| ~   vibrato
| +   harmonic
| x   Mute note
| b   Bend
| pb  Pre-bend
| br  Bend release
| pbr Pre-bend release
| brb Bend release bend

************************************
Добавлено: 29.08.2013
Другие материалы по этой песне:
  • Аккорды и текст

Страница создана 29.08.2013
http://primanota.ru/misc-unsigned-bands/hiatus-kaiyote-ocelot-chords.htm
Привет, Гость.
Предлагаем пройти революционный курс по гитаре.
Подарок от PrimaNota.Ru, забирай!