PrimaNota.ru - самый крупный в мире бесплатный архив песенных текстов, аккордов, табулатур и нот


Misc Unsigned Bands - Hello Mister Bitterness - Ancient Insanity - таба, видео

Регистрация Запомнить меня
Войти через:  Facebook Google Twitter Vk Yandex Mail.ru

Misc Unsigned Bands - Hello Mister Bitterness - Ancient Insanity - таба, видео

Печатать
Просмотров: 68
Уроки эстрадного вокала в Санкт-Петербурге
Hello Mister Bitterness- Ancient Insanity
Lead Guitar

Intro (x2) (Heavy Distortion, Echo)
|------------------------------------------|
|------------------------------------------|
|------------------------------------------|
|------------------------------------------|
|--0---0---0----0-3-2---2---2----2-5-3-----|
|---00--00--00-0-0-0-00--00--00-0-0-0-00---|
    **  **  ** * * * **  **  ** * * * **
|------------------------------------------|
|------------------------------------------|
|------------------------------------------|
|------------------------------------------|
|--3---3----3-7-5---5---5---8-7-5-3--------|
|---00--00-0-0-0-00--00--00----------------|
    **  ** * * * **  **  **
High Part of Dual Harmony (x2) (Heavy Distortion, Echo)
|------------------------------------------|
|------------------------------------------|
|------------------------------------------|
|--0---0---0----0-3-2---2---2----2-5-3-----|
|---00--00--00-0-0-0-00--00--00-0-0-0-00---|
|------------------------------------------|
    **  **  ** * * * **  **  ** * * * **
|------------------------------------------|
|------------------------------------------|
|------------------------------------------|
|--3---3----3-7-5---5---5---8-7-5-3--------|
|---00--00-0-0-0-00--00--00----------------|
|------------------------------------------|
    **  ** * * * **  **  **
Quiet Part (x2) (Chorus, Echo)
|--------------------------------------------------------------|
|--------------------------------------------------------------|
|--------------------------------------------------------------|
|-3---3---3---3-5-2---2---2---2-3-0---0---0---0-3-2---2---2~---|
|---0---0---0-------0---0---0-------0---0---0-------0---0------|
|--------------------------------------------------------------|

Build Up (x2) (Overdrive, Pitch, Echo)
|-----------------------------------------------------------------|
|-----------------------------------------------------------------|
|-----------------------------------------------------------------|
|-3---3---3----3-5-2---2---2----2-3-0---0---0----0-3-2---2---2~---|
|--00--00--00-0-0-0-00--00--00-0-0-0-00--00--00-0-0-0-00--00------|
|-----------------------------------------------------------------|
   **  **  ** * * * **  **  ** * * * **  **  ** * * * **  **
Build Up 2 (x2) (Heavy Distortion, Echo)
|-----------------------------------------------------------------|
|-----------------------------------------------------------------|
|-----------------------------------------------------------------|
|-3---3---3----3-5-2---2---2----2-3-0---0---0----0-3-2---2---2~---|
|--00--00--00-0-0-0-00--00--00-0-0-0-00--00--00-0-0-0-00--00------|
|-----------------------------------------------------------------|
   **  **  ** * * * **  **  ** * * * **  **  ** * * * **  **
Outro (x3) (Heavy Distortion, Echo)
|------------------------------------------|
|------------------------------------------|
|------------------------------------------|
|------------------------------------------|
|--0---0---0----0-3-2---2---2----2-5-3-----|
|---00--00--00-0-0-0-00--00--00-0-0-0-00---|
    **  **  ** * * * **  **  ** * * * **
|------------------------------------------|
|------------------------------------------|
|------------------------------------------|
|------------------------------------------|
|--3---3----3-7-5---5---5---8-7-5-3--------|
|---00--00-0-0-0-00--00--00----------------|
    **  ** * * * **  **  **
Outro 2 (x1) (Heavy Distortion, Echo)
|------------------------------------------|
|------------------------------------------|
|------------------------------------------|
|------------------------------------------|
|--0---0---0----0-3-2---2---2----2-5-3-----|
|---00--00--00-0-0-0-00--00--00-0-0-0-00---|
    **  **  ** * * * **  **  ** * * * **
|------------------------------------------|
|------------------------------------------|
|------------------------------------------|
|------------------------------------------|
|--3---3----3-7-5---5---5---8-7-5-3--------|
|---00--00-0-0-0-00--00--00----------------|
    **  ** * * * **  **  **
|------------------------------------------|
|------------------------------------------|
|------------------------------------------|
|------------------------------------------|
|--0---0---0----0-3-2---2---2----2-5-3-----|
|---00--00--00-0-0-0-00--00--00-0-0-0-00---|
    **  **  ** * * * **  **  ** * * * **
|------------------------------------------|
|------------------------------------------|
|------------------------------------------|
|------------------------------------------|
|--3---3----3-7-5---5---5---8-7-5-3--------|
|---00--00-0-0-0-00--00--00----------------|
    **  ** * * * **  **  **
|-----------------------------|
|-----------------------------|
|-----------------------------|
|--0---0---0---0---0----------|
|--0---0---0---0---0----------|
|---00--00--00--00------------|
    **  **  **  **

Legend
*   palm mute
Добавлено: 29.08.2013
Другие материалы по этой песне:
  • Аккорды и текст

Страница создана 29.08.2013
http://primanota.ru/misc-unsigned-bands/hello-mister-bitterness-ancient-insanity-chords.htm
Привет, Гость.
Предлагаем пройти революционный курс по гитаре.
Подарок от PrimaNota.Ru, забирай!