PrimaNota.ru - самый крупный в мире бесплатный архив песенных текстов, аккордов, табулатур и нот


Misc Unsigned Bands - Get Set Radio - This Kind Of Destruction - бас-таба, видео

Регистрация Запомнить меня
Войти через:  Facebook Google Twitter Vk Yandex Mail.ru

Misc Unsigned Bands - Get Set Radio - This Kind Of Destruction - бас-таба, видео

Печатать
Просмотров: 41
-------------------------------------------------------------------------------
		      This Kind Of Destruction - Get Set Radio
-------------------------------------------------------------------------------

Tabbed By : Get Set Radio
Website: www.getsetradio.com

Tuning: Standard
Part: Bass (Ruby)

G||-------|-------|-------|-------|-------|-------|-------|-------|-------|
D||-------|-------|-------|-------|-------|-------|-------|-------|-------|
A||-------|-------|-------|-------|-------|-------|-------|-------|-------|
E||-------|-------|-------|-------|-------|-------|-------|-------|-------|
 
 
  E  E  E  E  Q    E  E     E  E  E  E  E  E  E  E     E  E  E  E  Q    E  E   
-------------------------|--------------4--5--4-----|-------------------------|
-------------------------|--5-----7--------------5--|-------------------------|
-------------------5--7--|--------------------------|-------------------5--7--|
-----5--5-----5----------|--------------------------|-----5--5-----5----------|
 
 
  E  E  E  E  E  E  E  E     E  E  E  E  Q    E  E     E  E  E  E  E  E  E  E   
--------------4--5--4-----|-------------------------|--------------------------|
--5-----7--------------5--|-----3--3-----3----2--3--|--3-----3-----3--2-----2--|
--------------------------|-------------------------|--------------------3-----|
--------------------------|-------------------------|--------------------------|
 
 
  E  E  E  E  Q    E  E     Q    Q    E  E  E  E     Q    E  E  E  E  E  E    
-------------------------|------------------------|--------------------------|
--L----------------------|--5---------------------|--------------------------|
-------------------5--7--|-------7----5-----------|--------------------------|
-----5--5-----5----------|---------------7--7--7--|--1----1--1--1--1--1--1h--|
 
 
  E  E  E  E  E  E  E  E      E  E  E  E  E  E  E  E   
---------------------------|--------------------------|
---------------------------|--------------------------|
---------------------------|--------------------------|
--3--3--3--3--3--3--3--3h--|--5--5--5--5--5--5--5--5--|
 
 
  E  E  E  E  E  E  E  E     E  E  E  E  E  E  E  E    
--------------------------|---------------------------|
--------------------------|---------------------------|
--3--3--3--3--2--3--2-----|---------------------------|
-----------------------3--|--1--1--1--1--1--1--1--1h--|
 
 
  E  E  E  E  E  E  E  E      E  E  E  E  E  E  E  E   
---------------------------|--------------------------|
---------------------------|--------------------------|
---------------------------|--------------------------|
--3--3--3--3--3--3--3--3h--|--5--5--5--5--5--5--5--5--|
 
 
  E  E  E  E  E  E  E  E     E  E  E  E  Q    E  E     E  E  Q    E  E  E  E   
--------------------------|-------------------------|-------------------------|
--------------------------|-------------------------|-------------------------|
-----3--2--3--2--3--2-----|-------------------------|-------------------------|
-----------------------3--|-----5--5-----5-------5--|--5-----5----1--1--1--1--|
 
 
  E  E  E  E  Q    E  E     E  E  Q    E  E  E  E     E  E  E  E  Q    E  E   
-------------------------|-------------------------|-------------------------|
-------------------------|-------------------------|-------------------------|
-------------------------|-------------------------|-------------------------|
-----5--5-----5-------5--|--5-----5----1--1--1--1--|-----5--5-----5-------5--|
 
 
  E  E  Q    E  E  E  E           H.           E  E     E  E  Q    E  E  E  E   
-------------------------|-----|---------------------|-------------------------|
-------------------------|-----|---------------------|-------------------------|
-------------------------|-----|---------------------|-------------------------|
--5-----5----1--1--1--1--|-----|------------------5--|--L--5--5----5--5--5--5--|
 
 
  E  E  E  E  E  E  E  E     E  E  E  E  E  E  E  E   
--------------------------|--------------------------|
--------------------------|--------------------------|
--------------------------|--------------------------|
--5--5--5--5--1--1--1--1--|--5--5--5--5--5--5--5--5--|
 
 
  E  E  E  E  E  E  E  E     E  E  E  E  E  E  E  E   
--------------------------|--------------------------|
--------------------------|--------------------------|
--------------------------|--------------------------|
--5--5--5--5--1--1--1--1--|--5--5--5--5--5--5--5--5--|
 
 
  E  E  E  E  E  E  E  E     Q    E  E  E  E  E  E     E  E  E  E  E  E  E  E   
--------------------------|-------------------------|--------------------------|
--------------------------|-------------------------|--------------------------|
--------------------------|-------------------------|--------------------------|
--5--5--5--5--1--1--1--1--|--3----3--3--3--3--3--3--|--3--3--3--3--1--1--1--1--|
 
 
  E  E  E  E  Q    E  E     E  E  E  E  E  E  E  E     E  E  E  E  Q    E  E   
-------------------------|--------------4--5--4-----|-------------------------|
-------------------------|--5-----7--------------5--|-------------------------|
-------------------5--7--|--------------------------|-------------------5--7--|
-----5--5-----5----------|--------------------------|-----5--5-----5----------|
 
 
  E  E  E  E  E  E  E  E     E  E  E  E  Q    E  E     E  E  E  E  E  E  E  E   
--------------4--5--4-----|-------------------------|--------------4--5--4-----|
--5-----7--------------5--|-------------------------|--5-----7--------------5--|
--------------------------|-------------------5--7--|--------------------------|
--------------------------|-----5--5-----5----------|--------------------------|
 
 
  E  E  E  E  Q    E  E     E  E  E  E  E  E  E  E     Q    E  E  E  E  E  E    
-------------------------|--------------------------|--------------------------|
-----3--3-----3----2--3--|--5--L--3--L--2-----------|--------------------------|
-------------------------|-----------------3--3--3--|--------------------------|
-------------------------|--------------------------|--1----1--1--1--1--1--1h--|
 
 
  E  E  E  E  E  E  E  E      E  E  E  E  E  E  E  E   
---------------------------|--------------------------|
---------------------------|--------------------------|
---------------------------|--------------------------|
--3--3--3--3--3--3--3--3h--|--5--5--5--5--5--5--5--5--|
 
 
  E  E  E  E  E  E  E  E     Q    E  E  E  E  E  E    
--------------------------|--------------------------|
--------------------------|--------------------------|
--3--3--3--3--2--3--2-----|--------------------------|
-----------------------3--|--1----1--1--1--1--1--1h--|
 
 
  E  E  E  E  E  E  E  E      E  E  E  E  E  E  E  E   
---------------------------|--------------------------|
---------------------------|--------------------------|
---------------------------|--------------------------|
--3--3--3--3--3--3--3--3h--|--5--5--5--5--5--5--5--5--|
 
 
  E  E  E  E  E  E  E  E     E  E  E  E  E  E  E  E   
--------------------------|--------------------------|
--------------------------|--------------------------|
--3--3--3--3--2--3--2-----|--------------------------|
-----------------------3--|-----1--1--1--1--1--1--1--|
 
 
  E  E  E  E  E  E  E  E     E  E  E  E  E  E  E  E   
--------------------------|--------------------------|
--------------------------|--------------------------|
--------------------------|--------------------------|
-----3--3--3--3--3--3--3--|-----5--5--5--5--5--5--5--|
 
 
  E  E  E  E  E  E  E  E     E  E  E  E  E  E  E  E   
--------------------------|--------------------------|
--------------------------|--------------------------|
-----3--3--3--3--3--3--3--|--------------------------|
--------------------------|-----1--1--1--1--1--1--1--|
 
 
  E  E  E  E  E  E  E  E     E  E  E  E  E  E  E  E   
--------------------------|--------------------------|
--------------------------|--------------------------|
--------------------------|--------------------------|
-----3--3--3--3--3--3--3--|-----5--5--5--5--5--5--5--|
 
 
  E  E  E  E  E  E  E  E     E  E  E  E  Q    E  E     E  E  Q    E  E  E  E   
--------------------------|-------------------------|-------------------------|
--------------------------|-------------------------|-------------------------|
-----3--3--3--2--3--2-----|-------------------------|-------------------------|
-----------------------3--|-----5--5-----5-------5--|--5-----5----1--1--1--1--|
 
 
  E  E  E  E  Q    E  E     E  E  Q    E  E  E  E     E  E  E  E  Q    E  E   
-------------------------|-------------------------|-------------------------|
-------------------------|-------------------------|-------------------------|
-------------------------|-------------------------|-------------------------|
-----5--5-----5-------5--|--5-----5----1--1--1--1--|-----5--5-----5-------5--|
 
 
  E  E  Q    E  E  E  E     W                   W                 
-------------------------|-------------------|-------------------|
-------------------------|-------------------|-------------------|
-------------------------|-------------------|-------------------|
--5-----5----1--1--1--1--|-------------------|-------------------|
 
 
  W                   W                   W                   W                 
-------------------|-------------------|-------------------|-------------------|
-------------------|-------------------|-------------------|-------------------|
-------------------|-------------------|-------------------|-------------------|
--5----------------|--L----------------|--L----------------|--L----------------|
 
 
  W                   W                   W                   W                 
-------------------|-------------------|-------------------|-------------------|
-------------------|-------------------|-------------------|-------------------|
-------------------|-------------------|-------------------|-------------------|
--L----------------|--L----------------|--L----------------|--L----------------|
 
 
  E  E  E  E  E  E  E  E     E   E  E  E  E  E  E  E   
--------------------------|---------------------------|
--------------------------|---------------------------|
--------------------------|---------------------------|
--1--1--1--1--1--1--1--1--|--1h--3--3--3--3--3--3--3--|
 
 
  E   E  E  E  E  E  E  E     E  E  E  E  E  E  E  E   
---------------------------|--------------------------|
---------------------------|--------------------------|
---------------------------|--3--3--3--3--3--3--3--0--|
--3h--5--5--5--5--5--5--5--|--------------------------|
 
 
  E  E  E  E  E  E  E  E     E   E  E  E  E  E  E  E   
--------------------------|---------------------------|
--------------------------|---------------------------|
--------------------------|---------------------------|
--1--1--1--1--1--1--1--1--|--1h--3--3--3--3--3--3--3--|
 
 
  E   E  E  E  E  E  E  E     E  E  E  E  E  E  Q       Q    E  E  E  E  E  E   
---------------------------|-------------------------|-------------------------|
---------------------------|-------------------------|-------------------------|
---------------------------|-------------------------|-------------------------|
--3h--5--5--5--5--5--5--5--|-----3--3-----3--3-------|--1----1--1--1--1--1--1--|
 
 
  E  E  E  E  E  E  E  E     E  E  E  E  E  E  E  E   
--------------------------|--------------------------|
--------------------------|--------------------------|
--------------------------|--------------------------|
--3--3--3--3--3--3--3--3--|--5--5--5--5--5--5--5--5--|
 
 
  E  E  E  E  E  E  E  E     Q    E  E  E  E  E  E     E  E  E  E  E  E  E  E   
--------------------------|-------------------------|--------------------------|
--------------------------|-------------------------|--------------------------|
--3--3--3--3--2--3--2-----|-------------------------|--------------------------|
-----------------------3--|--1----1--1--1--1--1--1--|--3--3--3--3--3--3--3--3--|
 
 
  E  E  E  E  E  E  E  E     E  E  E  E  E  E  E  E     Q    E  E  E  E  E  E   
--------------------------|--------------------------|-------------------------|
-----------2--------------|-----------2--------------|-------------------------|
-----3--5-----5--3--2--3--|-----3--5-----5--3--2--0--|-------------------------|
--------------------------|--------------------------|--1----1--1--1--1--1--1--|
 
 
  E  E  E  E  E  E  E  E     Q    E  E  Q    E  E     Q    Q    Q    E  E   
--------------------------|------------------------|-----------------------|
--------------------------|------------------------|------------3----------|
--------------------------|-------3--0-------3--0--|-------3---------3--0--|
--3--3--3--3--3--3--3--3--|--5----------3----------|--1--------------------|
 
 
  Q    E  E  E  E  E  E     E  E  E  E  E  E  E  E     E  E  E  E  E  E  E  E   
-------------------------|--------------------------|--------------------------|
-------------------------|--------------------------|-----7--7--7--7--5--------|
-------------------------|--------------------------|--------------------7-----|
--1----1--1--1--1--1--1--|--3--3--3--3--3--3--3--3--|-----------------------8--|
 
 
  E  E  E  E  E  E  E  E     E  E  E  E  E  E  E  E   
--------------------------|--------------------------|
-----7--7--7--7--5--------|-----7--7--7--7--5--------|
--------------------7-----|--------------------7-----|
-----------------------5--|-----------------------8--|
 
 
  E  E  E  E  E  E  E  E          
--------------------------|-----||
-----7--7--7--5-----5--7--|-----||
-----------------7--------|-----||
--------------------------|-----||
 
 
 
 
Duration Legend
---------------
W - whole
H - half
Q - quarter
E - 8th
S - 16th
T - 32nd
X - 64th
. - note dotted
|-n-|  - n-tuplets
 
 
Tablature Legend
----------------
L - tied note
x - dead note
g - grace note
(n) - ghost note
> - accentuded note
NH - natural harmonic
AH - artificial harmonic
TH - tapped harmonic
SH - semi harmonic
PH - pitch harmonic
h - hammer on
p - pull off
b - bend
br - bendRelease
pb - preBend
pbr - preBendRelease
brb - bendReleaseBend
\n/ - tremolo bar dip
\n - tremolo bar dive
-/n - tremolo bar Release up
/n\ - tremolo bar inverted dip
/n - tremolo bar return
-\n - tremolo bar Release down
S - shift slide
s - legato slide
/ -  slide into from below or out of upwards
\ -  slide into from above or out of downwards
~ - vibrato
W - wide vibrato
tr - tril'
TP - tremolo picking
T - tapping
S - slap
P - pop
< - fade in
^ - brush up
v - brush down
Добавлено: 24.09.2013
Другие материалы по этой песне:
  • Аккорды и текст

Страница создана 24.09.2013
http://primanota.ru/misc-unsigned-bands/get-set-radio-this-kind-of-destruction-chords.htm
Привет, Гость.
Предлагаем пройти революционный курс по гитаре.
Подарок от PrimaNota.Ru, забирай!